ISO-10303-21;
HEADER;
FILE_DESCRIPTION(('TurboCAD Mac Pro'),'Build 980');
FILE_NAME('P1065.stp','  ',(''),(''),'ACIS Interop','IMSI','TurboCAD Mac Pro BY IMSI, INCORPORATED');
FILE_SCHEMA(('automotive_design'));
ENDSEC;
DATA;
#1=MECHANICAL_DESIGN_GEOMETRIC_PRESENTATION_REPRESENTATION(' ',(#10,#11,#12,#13,#14,#15,#16,#17,#18,#19,#20),#6);
#2=PRODUCT_DEFINITION_CONTEXT('',#21,'design');
#3=APPLICATION_PROTOCOL_DEFINITION('INTERNATIONAL STANDARD','automotive_design',1994,#21);
#4=PRODUCT_CATEGORY_RELATIONSHIP('NONE','NONE',#22,#23);
#5=SHAPE_DEFINITION_REPRESENTATION(#24,#25);
#6= (GEOMETRIC_REPRESENTATION_CONTEXT(3)GLOBAL_UNCERTAINTY_ASSIGNED_CONTEXT((#28))GLOBAL_UNIT_ASSIGNED_CONTEXT((#30,#31,#32))REPRESENTATION_CONTEXT('NONE','WORKSPACE'));
#10=STYLED_ITEM('',(#34),#35);
#11=STYLED_ITEM('',(#36),#37);
#12=STYLED_ITEM('',(#38),#39);
#13=STYLED_ITEM('',(#40),#41);
#14=STYLED_ITEM('',(#42),#43);
#15=STYLED_ITEM('',(#44),#45);
#16=STYLED_ITEM('',(#46),#47);
#17=STYLED_ITEM('',(#48),#49);
#18=STYLED_ITEM('',(#50),#51);
#19=STYLED_ITEM('',(#52),#53);
#20=STYLED_ITEM('',(#54),#55);
#21=APPLICATION_CONTEXT(' ');
#22=PRODUCT_CATEGORY('part','NONE');
#23=PRODUCT_RELATED_PRODUCT_CATEGORY('detail',' ',(#56));
#24=PRODUCT_DEFINITION_SHAPE('NONE','NONE',#57);
#25=ADVANCED_BREP_SHAPE_REPRESENTATION('1',(#53,#58),#6);
#28=UNCERTAINTY_MEASURE_WITH_UNIT(LENGTH_MEASURE(1.0E-06),#30,'','');
#30= (CONVERSION_BASED_UNIT('INCH',#61)LENGTH_UNIT()NAMED_UNIT(#64));
#31= (NAMED_UNIT(#66)PLANE_ANGLE_UNIT()SI_UNIT($,.RADIAN.));
#32= (NAMED_UNIT(#66)SOLID_ANGLE_UNIT()SI_UNIT($,.STERADIAN.));
#34=PRESENTATION_STYLE_ASSIGNMENT((#72));
#35=ADVANCED_FACE('',(#73),#74,.F.);
#36=PRESENTATION_STYLE_ASSIGNMENT((#75));
#37=ADVANCED_FACE('',(#76),#77,.F.);
#38=PRESENTATION_STYLE_ASSIGNMENT((#78));
#39=ADVANCED_FACE('',(#79),#80,.T.);
#40=PRESENTATION_STYLE_ASSIGNMENT((#81));
#41=ADVANCED_FACE('',(#82),#83,.F.);
#42=PRESENTATION_STYLE_ASSIGNMENT((#84));
#43=ADVANCED_FACE('',(#85,#86,#87),#88,.T.);
#44=PRESENTATION_STYLE_ASSIGNMENT((#89));
#45=ADVANCED_FACE('',(#90),#91,.T.);
#46=PRESENTATION_STYLE_ASSIGNMENT((#92));
#47=ADVANCED_FACE('',(#93,#94,#95),#96,.F.);
#48=PRESENTATION_STYLE_ASSIGNMENT((#97));
#49=ADVANCED_FACE('',(#98),#99,.F.);
#50=PRESENTATION_STYLE_ASSIGNMENT((#100));
#51=ADVANCED_FACE('',(#101),#102,.T.);
#52=PRESENTATION_STYLE_ASSIGNMENT((#103));
#53=MANIFOLD_SOLID_BREP('1',#104);
#54=PRESENTATION_STYLE_ASSIGNMENT((#105));
#55=ADVANCED_FACE('',(#106),#107,.T.);
#56=PRODUCT('1','1','PART-1-DESC',(#108));
#57=PRODUCT_DEFINITION('NONE','NONE',#109,#2);
#58=AXIS2_PLACEMENT_3D('',#110,#111,#112);
#61=LENGTH_MEASURE_WITH_UNIT(LENGTH_MEASURE(25.4),#113);
#64=DIMENSIONAL_EXPONENTS(1.0,0.0,0.0,0.0,0.0,0.0,0.0);
#66=DIMENSIONAL_EXPONENTS(0.0,0.0,0.0,0.0,0.0,0.0,0.0);
#72=SURFACE_STYLE_USAGE(.BOTH.,#114);
#73=FACE_OUTER_BOUND('',#115,.T.);
#74=CYLINDRICAL_SURFACE('',#116,0.275590551181102);
#75=SURFACE_STYLE_USAGE(.BOTH.,#117);
#76=FACE_OUTER_BOUND('',#118,.T.);
#77=CYLINDRICAL_SURFACE('',#119,0.275590551181102);
#78=SURFACE_STYLE_USAGE(.BOTH.,#120);
#79=FACE_OUTER_BOUND('',#121,.T.);
#80=PLANE('',#122);
#81=SURFACE_STYLE_USAGE(.BOTH.,#123);
#82=FACE_OUTER_BOUND('',#124,.T.);
#83=CYLINDRICAL_SURFACE('',#125,0.275590551181102);
#84=SURFACE_STYLE_USAGE(.BOTH.,#126);
#85=FACE_BOUND('',#127,.T.);
#86=FACE_BOUND('',#128,.T.);
#87=FACE_OUTER_BOUND('',#129,.T.);
#88=PLANE('',#130);
#89=SURFACE_STYLE_USAGE(.BOTH.,#131);
#90=FACE_OUTER_BOUND('',#132,.T.);
#91=PLANE('',#133);
#92=SURFACE_STYLE_USAGE(.BOTH.,#134);
#93=FACE_BOUND('',#135,.T.);
#94=FACE_BOUND('',#136,.T.);
#95=FACE_OUTER_BOUND('',#137,.T.);
#96=PLANE('',#138);
#97=SURFACE_STYLE_USAGE(.BOTH.,#139);
#98=FACE_OUTER_BOUND('',#140,.T.);
#99=CYLINDRICAL_SURFACE('',#141,0.275590551181102);
#100=SURFACE_STYLE_USAGE(.BOTH.,#142);
#101=FACE_OUTER_BOUND('',#143,.T.);
#102=PLANE('',#144);
#103=SURFACE_STYLE_USAGE(.BOTH.,#145);
#104=CLOSED_SHELL('',(#49,#37,#35,#41,#55,#39,#45,#51,#43,#47));
#105=SURFACE_STYLE_USAGE(.BOTH.,#146);
#106=FACE_OUTER_BOUND('',#147,.T.);
#107=PLANE('',#148);
#108=PRODUCT_CONTEXT('',#21,'mechanical');
#109=PRODUCT_DEFINITION_FORMATION_WITH_SPECIFIED_SOURCE(' ','NONE',#56,.NOT_KNOWN.);
#110=CARTESIAN_POINT('',(0.0,0.0,0.0));
#111=DIRECTION('',(0.0,0.0,1.0));
#112=DIRECTION('',(1.0,0.0,0.0));
#113= (NAMED_UNIT(#64)LENGTH_UNIT()SI_UNIT(.MILLI.,.METRE.));
#114=SURFACE_SIDE_STYLE('',(#150));
#115=EDGE_LOOP('',(#151,#152,#153,#154));
#116=AXIS2_PLACEMENT_3D('',#155,#156,#157);
#117=SURFACE_SIDE_STYLE('',(#158));
#118=EDGE_LOOP('',(#159,#160,#161,#162));
#119=AXIS2_PLACEMENT_3D('',#163,#164,#165);
#120=SURFACE_SIDE_STYLE('',(#166));
#121=EDGE_LOOP('',(#167,#168,#169,#170));
#122=AXIS2_PLACEMENT_3D('',#171,#172,#173);
#123=SURFACE_SIDE_STYLE('',(#174));
#124=EDGE_LOOP('',(#175,#176,#177,#178));
#125=AXIS2_PLACEMENT_3D('',#179,#180,#181);
#126=SURFACE_SIDE_STYLE('',(#182));
#127=EDGE_LOOP('',(#183,#184));
#128=EDGE_LOOP('',(#185,#186));
#129=EDGE_LOOP('',(#187,#188,#189,#190));
#130=AXIS2_PLACEMENT_3D('',#191,#192,#193);
#131=SURFACE_SIDE_STYLE('',(#194));
#132=EDGE_LOOP('',(#195,#196,#197,#198));
#133=AXIS2_PLACEMENT_3D('',#199,#200,#201);
#134=SURFACE_SIDE_STYLE('',(#202));
#135=EDGE_LOOP('',(#203,#204));
#136=EDGE_LOOP('',(#205,#206));
#137=EDGE_LOOP('',(#207,#208,#209,#210));
#138=AXIS2_PLACEMENT_3D('',#211,#212,#213);
#139=SURFACE_SIDE_STYLE('',(#214));
#140=EDGE_LOOP('',(#215,#216,#217,#218));
#141=AXIS2_PLACEMENT_3D('',#219,#220,#221);
#142=SURFACE_SIDE_STYLE('',(#222));
#143=EDGE_LOOP('',(#223,#224,#225,#226));
#144=AXIS2_PLACEMENT_3D('',#227,#228,#229);
#145=SURFACE_SIDE_STYLE('',(#230));
#146=SURFACE_SIDE_STYLE('',(#231));
#147=EDGE_LOOP('',(#232,#233,#234,#235));
#148=AXIS2_PLACEMENT_3D('',#236,#237,#238);
#150=SURFACE_STYLE_FILL_AREA(#239);
#151=ORIENTED_EDGE('',*,*,#240,.T.);
#152=ORIENTED_EDGE('',*,*,#241,.F.);
#153=ORIENTED_EDGE('',*,*,#242,.T.);
#154=ORIENTED_EDGE('',*,*,#243,.F.);
#155=CARTESIAN_POINT('',(-0.78740157480315,-0.78740157480315,0.0));
#156=DIRECTION('',(-0.0,-0.0,-1.0));
#157=DIRECTION('',(-1.0,0.0,0.0));
#158=SURFACE_STYLE_FILL_AREA(#244);
#159=ORIENTED_EDGE('',*,*,#240,.F.);
#160=ORIENTED_EDGE('',*,*,#245,.F.);
#161=ORIENTED_EDGE('',*,*,#242,.F.);
#162=ORIENTED_EDGE('',*,*,#246,.F.);
#163=CARTESIAN_POINT('',(-0.78740157480315,-0.78740157480315,0.0));
#164=DIRECTION('',(-0.0,-0.0,-1.0));
#165=DIRECTION('',(-1.0,0.0,0.0));
#166=SURFACE_STYLE_FILL_AREA(#247);
#167=ORIENTED_EDGE('',*,*,#248,.T.);
#168=ORIENTED_EDGE('',*,*,#249,.F.);
#169=ORIENTED_EDGE('',*,*,#250,.F.);
#170=ORIENTED_EDGE('',*,*,#251,.T.);
#171=CARTESIAN_POINT('',(3.49676543189026E-16,-1.5748031496063,0.0));
#172=DIRECTION('',(1.00929365875014E-16,-1.0,0.0));
#173=DIRECTION('',(0.0,0.0,-1.0));
#174=SURFACE_STYLE_FILL_AREA(#252);
#175=ORIENTED_EDGE('',*,*,#253,.T.);
#176=ORIENTED_EDGE('',*,*,#254,.F.);
#177=ORIENTED_EDGE('',*,*,#255,.T.);
#178=ORIENTED_EDGE('',*,*,#256,.F.);
#179=CARTESIAN_POINT('',(-2.67716535433071,-0.787401574803149,0.0));
#180=DIRECTION('',(-0.0,-0.0,-1.0));
#181=DIRECTION('',(-1.0,0.0,0.0));
#182=SURFACE_STYLE_FILL_AREA(#257);
#183=ORIENTED_EDGE('',*,*,#245,.T.);
#184=ORIENTED_EDGE('',*,*,#243,.T.);
#185=ORIENTED_EDGE('',*,*,#258,.T.);
#186=ORIENTED_EDGE('',*,*,#256,.T.);
#187=ORIENTED_EDGE('',*,*,#259,.F.);
#188=ORIENTED_EDGE('',*,*,#260,.F.);
#189=ORIENTED_EDGE('',*,*,#261,.F.);
#190=ORIENTED_EDGE('',*,*,#248,.F.);
#191=CARTESIAN_POINT('',(-1.73228346456693,-0.787401574803149,0.236220472440945));
#192=DIRECTION('',(0.0,0.0,1.0));
#193=DIRECTION('',(1.0,0.0,0.0));
#194=SURFACE_STYLE_FILL_AREA(#262);
#195=ORIENTED_EDGE('',*,*,#261,.T.);
#196=ORIENTED_EDGE('',*,*,#263,.F.);
#197=ORIENTED_EDGE('',*,*,#264,.F.);
#198=ORIENTED_EDGE('',*,*,#249,.T.);
#199=CARTESIAN_POINT('',(-3.46456692913386,-1.5748031496063,0.0));
#200=DIRECTION('',(-1.0,0.0,0.0));
#201=DIRECTION('',(0.0,0.0,1.0));
#202=SURFACE_STYLE_FILL_AREA(#265);
#203=ORIENTED_EDGE('',*,*,#241,.T.);
#204=ORIENTED_EDGE('',*,*,#246,.T.);
#205=ORIENTED_EDGE('',*,*,#254,.T.);
#206=ORIENTED_EDGE('',*,*,#266,.T.);
#207=ORIENTED_EDGE('',*,*,#267,.T.);
#208=ORIENTED_EDGE('',*,*,#268,.T.);
#209=ORIENTED_EDGE('',*,*,#250,.T.);
#210=ORIENTED_EDGE('',*,*,#264,.T.);
#211=CARTESIAN_POINT('',(-1.73228346456693,-0.787401574803149,0.0));
#212=DIRECTION('',(0.0,0.0,1.0));
#213=DIRECTION('',(1.0,0.0,0.0));
#214=SURFACE_STYLE_FILL_AREA(#269);
#215=ORIENTED_EDGE('',*,*,#253,.F.);
#216=ORIENTED_EDGE('',*,*,#258,.F.);
#217=ORIENTED_EDGE('',*,*,#255,.F.);
#218=ORIENTED_EDGE('',*,*,#266,.F.);
#219=CARTESIAN_POINT('',(-2.67716535433071,-0.787401574803149,0.0));
#220=DIRECTION('',(-0.0,-0.0,-1.0));
#221=DIRECTION('',(-1.0,0.0,0.0));
#222=SURFACE_STYLE_FILL_AREA(#270);
#223=ORIENTED_EDGE('',*,*,#260,.T.);
#224=ORIENTED_EDGE('',*,*,#271,.F.);
#225=ORIENTED_EDGE('',*,*,#267,.F.);
#226=ORIENTED_EDGE('',*,*,#263,.T.);
#227=CARTESIAN_POINT('',(-3.46456692913386,0.0,0.0));
#228=DIRECTION('',(0.0,1.0,0.0));
#229=DIRECTION('',(0.0,0.0,1.0));
#230=SURFACE_STYLE_FILL_AREA(#272);
#231=SURFACE_STYLE_FILL_AREA(#273);
#232=ORIENTED_EDGE('',*,*,#259,.T.);
#233=ORIENTED_EDGE('',*,*,#251,.F.);
#234=ORIENTED_EDGE('',*,*,#268,.F.);
#235=ORIENTED_EDGE('',*,*,#271,.T.);
#236=CARTESIAN_POINT('',(0.0,0.0,0.0));
#237=DIRECTION('',(1.0,2.22044604925031E-16,0.0));
#238=DIRECTION('',(0.0,0.0,-1.0));
#239=FILL_AREA_STYLE('',(#274));
#240=EDGE_CURVE('',#275,#276,#277,.T.);
#241=EDGE_CURVE('',#278,#276,#279,.T.);
#242=EDGE_CURVE('',#278,#280,#281,.T.);
#243=EDGE_CURVE('',#275,#280,#282,.T.);
#244=FILL_AREA_STYLE('',(#283));
#245=EDGE_CURVE('',#280,#275,#284,.T.);
#246=EDGE_CURVE('',#276,#278,#285,.T.);
#247=FILL_AREA_STYLE('',(#286));
#248=EDGE_CURVE('',#287,#288,#289,.T.);
#249=EDGE_CURVE('',#290,#288,#291,.T.);
#250=EDGE_CURVE('',#292,#290,#293,.T.);
#251=EDGE_CURVE('',#292,#287,#294,.T.);
#252=FILL_AREA_STYLE('',(#295));
#253=EDGE_CURVE('',#296,#297,#298,.T.);
#254=EDGE_CURVE('',#299,#297,#300,.T.);
#255=EDGE_CURVE('',#299,#301,#302,.T.);
#256=EDGE_CURVE('',#296,#301,#303,.T.);
#257=FILL_AREA_STYLE('',(#304));
#258=EDGE_CURVE('',#301,#296,#305,.T.);
#259=EDGE_CURVE('',#306,#287,#307,.T.);
#260=EDGE_CURVE('',#308,#306,#309,.T.);
#261=EDGE_CURVE('',#288,#308,#310,.T.);
#262=FILL_AREA_STYLE('',(#311));
#263=EDGE_CURVE('',#312,#308,#313,.T.);
#264=EDGE_CURVE('',#290,#312,#314,.T.);
#265=FILL_AREA_STYLE('',(#315));
#266=EDGE_CURVE('',#297,#299,#316,.T.);
#267=EDGE_CURVE('',#312,#317,#318,.T.);
#268=EDGE_CURVE('',#317,#292,#319,.T.);
#269=FILL_AREA_STYLE('',(#320));
#270=FILL_AREA_STYLE('',(#321));
#271=EDGE_CURVE('',#317,#306,#322,.T.);
#272=FILL_AREA_STYLE('',(#323));
#273=FILL_AREA_STYLE('',(#324));
#274=FILL_AREA_STYLE_COLOUR('',#325);
#275=VERTEX_POINT('',#326);
#276=VERTEX_POINT('',#327);
#277=LINE('',#328,#329);
#278=VERTEX_POINT('',#330);
#279=CIRCLE('',#331,0.275590551181102);
#280=VERTEX_POINT('',#332);
#281=LINE('',#333,#334);
#282=CIRCLE('',#335,0.275590551181102);
#283=FILL_AREA_STYLE_COLOUR('',#336);
#284=CIRCLE('',#337,0.275590551181102);
#285=CIRCLE('',#338,0.275590551181102);
#286=FILL_AREA_STYLE_COLOUR('',#339);
#287=VERTEX_POINT('',#340);
#288=VERTEX_POINT('',#341);
#289=LINE('',#342,#343);
#290=VERTEX_POINT('',#344);
#291=LINE('',#345,#346);
#292=VERTEX_POINT('',#347);
#293=LINE('',#348,#349);
#294=LINE('',#350,#351);
#295=FILL_AREA_STYLE_COLOUR('',#352);
#296=VERTEX_POINT('',#353);
#297=VERTEX_POINT('',#354);
#298=LINE('',#355,#356);
#299=VERTEX_POINT('',#357);
#300=CIRCLE('',#358,0.275590551181102);
#301=VERTEX_POINT('',#359);
#302=LINE('',#360,#361);
#303=CIRCLE('',#362,0.275590551181102);
#304=FILL_AREA_STYLE_COLOUR('',#363);
#305=CIRCLE('',#364,0.275590551181102);
#306=VERTEX_POINT('',#365);
#307=LINE('',#366,#367);
#308=VERTEX_POINT('',#368);
#309=LINE('',#369,#370);
#310=LINE('',#371,#372);
#311=FILL_AREA_STYLE_COLOUR('',#373);
#312=VERTEX_POINT('',#374);
#313=LINE('',#375,#376);
#314=LINE('',#377,#378);
#315=FILL_AREA_STYLE_COLOUR('',#379);
#316=CIRCLE('',#380,0.275590551181102);
#317=VERTEX_POINT('',#381);
#318=LINE('',#382,#383);
#319=LINE('',#384,#385);
#320=FILL_AREA_STYLE_COLOUR('',#386);
#321=FILL_AREA_STYLE_COLOUR('',#387);
#322=LINE('',#388,#389);
#323=FILL_AREA_STYLE_COLOUR('',#390);
#324=FILL_AREA_STYLE_COLOUR('',#391);
#325=COLOUR_RGB('',0.0,1.0,0.0);
#326=CARTESIAN_POINT('',(-1.06299212598425,-0.78740157480315,0.236220472440945));
#327=CARTESIAN_POINT('',(-1.06299212598425,-0.78740157480315,0.0));
#328=CARTESIAN_POINT('',(-1.06299212598425,-0.78740157480315,0.0));
#329=VECTOR('',#392,1.0);
#330=CARTESIAN_POINT('',(-0.511811023622047,-0.78740157480315,0.0));
#331=AXIS2_PLACEMENT_3D('',#393,#394,#395);
#332=CARTESIAN_POINT('',(-0.511811023622047,-0.78740157480315,0.236220472440945));
#333=CARTESIAN_POINT('',(-0.511811023622047,-0.78740157480315,0.0));
#334=VECTOR('',#396,1.0);
#335=AXIS2_PLACEMENT_3D('',#397,#398,#399);
#336=COLOUR_RGB('',0.0,1.0,0.0);
#337=AXIS2_PLACEMENT_3D('',#400,#401,#402);
#338=AXIS2_PLACEMENT_3D('',#403,#404,#405);
#339=COLOUR_RGB('',0.0,1.0,0.0);
#340=CARTESIAN_POINT('',(3.49676543189026E-16,-1.5748031496063,0.236220472440945));
#341=CARTESIAN_POINT('',(-3.46456692913386,-1.5748031496063,0.236220472440945));
#342=CARTESIAN_POINT('',(3.49676543189026E-16,-1.5748031496063,0.236220472440945));
#343=VECTOR('',#406,0.393700787401575);
#344=CARTESIAN_POINT('',(-3.46456692913386,-1.5748031496063,0.0));
#345=CARTESIAN_POINT('',(-3.46456692913386,-1.5748031496063,0.0));
#346=VECTOR('',#407,0.393700787401575);
#347=CARTESIAN_POINT('',(3.49676543189026E-16,-1.5748031496063,0.0));
#348=CARTESIAN_POINT('',(3.49676543189026E-16,-1.5748031496063,0.0));
#349=VECTOR('',#408,0.393700787401575);
#350=CARTESIAN_POINT('',(3.49676543189026E-16,-1.5748031496063,0.0));
#351=VECTOR('',#409,0.393700787401575);
#352=COLOUR_RGB('',0.0,1.0,0.0);
#353=CARTESIAN_POINT('',(-2.95275590551181,-0.787401574803149,0.236220472440945));
#354=CARTESIAN_POINT('',(-2.95275590551181,-0.787401574803149,0.0));
#355=CARTESIAN_POINT('',(-2.95275590551181,-0.787401574803149,0.0));
#356=VECTOR('',#410,1.0);
#357=CARTESIAN_POINT('',(-2.40157480314961,-0.787401574803149,0.0));
#358=AXIS2_PLACEMENT_3D('',#411,#412,#413);
#359=CARTESIAN_POINT('',(-2.40157480314961,-0.787401574803149,0.236220472440945));
#360=CARTESIAN_POINT('',(-2.40157480314961,-0.787401574803149,0.0));
#361=VECTOR('',#414,1.0);
#362=AXIS2_PLACEMENT_3D('',#415,#416,#417);
#363=COLOUR_RGB('',0.0,1.0,0.0);
#364=AXIS2_PLACEMENT_3D('',#418,#419,#420);
#365=CARTESIAN_POINT('',(0.0,0.0,0.236220472440945));
#366=CARTESIAN_POINT('',(0.0,0.0,0.236220472440945));
#367=VECTOR('',#421,0.393700787401575);
#368=CARTESIAN_POINT('',(-3.46456692913386,0.0,0.236220472440945));
#369=CARTESIAN_POINT('',(-3.46456692913386,0.0,0.236220472440945));
#370=VECTOR('',#422,0.393700787401575);
#371=CARTESIAN_POINT('',(-3.46456692913386,-1.5748031496063,0.236220472440945));
#372=VECTOR('',#423,0.393700787401575);
#373=COLOUR_RGB('',0.0,1.0,0.0);
#374=CARTESIAN_POINT('',(-3.46456692913386,0.0,0.0));
#375=CARTESIAN_POINT('',(-3.46456692913386,0.0,0.0));
#376=VECTOR('',#424,0.393700787401575);
#377=CARTESIAN_POINT('',(-3.46456692913386,-1.5748031496063,0.0));
#378=VECTOR('',#425,0.393700787401575);
#379=COLOUR_RGB('',0.0,1.0,0.0);
#380=AXIS2_PLACEMENT_3D('',#426,#427,#428);
#381=CARTESIAN_POINT('',(0.0,0.0,0.0));
#382=CARTESIAN_POINT('',(-3.46456692913386,0.0,0.0));
#383=VECTOR('',#429,0.393700787401575);
#384=CARTESIAN_POINT('',(0.0,0.0,0.0));
#385=VECTOR('',#430,0.393700787401575);
#386=COLOUR_RGB('',0.0,1.0,0.0);
#387=COLOUR_RGB('',0.0,1.0,0.0);
#388=CARTESIAN_POINT('',(0.0,0.0,0.0));
#389=VECTOR('',#431,0.393700787401575);
#390=COLOUR_RGB('',0.0,1.0,0.0);
#391=COLOUR_RGB('',0.0,1.0,0.0);
#392=DIRECTION('',(0.0,-0.0,-1.0));
#393=CARTESIAN_POINT('',(-0.78740157480315,-0.78740157480315,0.0));
#394=DIRECTION('',(0.0,0.0,1.0));
#395=DIRECTION('',(-1.0,0.0,0.0));
#396=DIRECTION('',(0.0,0.0,1.0));
#397=CARTESIAN_POINT('',(-0.78740157480315,-0.78740157480315,0.236220472440945));
#398=DIRECTION('',(0.0,0.0,-1.0));
#399=DIRECTION('',(-1.0,0.0,0.0));
#400=CARTESIAN_POINT('',(-0.78740157480315,-0.78740157480315,0.236220472440945));
#401=DIRECTION('',(0.0,0.0,-1.0));
#402=DIRECTION('',(-1.0,0.0,0.0));
#403=CARTESIAN_POINT('',(-0.78740157480315,-0.78740157480315,0.0));
#404=DIRECTION('',(0.0,0.0,1.0));
#405=DIRECTION('',(-1.0,0.0,0.0));
#406=DIRECTION('',(-1.0,-1.00929365875014E-16,0.0));
#407=DIRECTION('',(0.0,0.0,1.0));
#408=DIRECTION('',(-1.0,-1.00929365875014E-16,0.0));
#409=DIRECTION('',(0.0,0.0,1.0));
#410=DIRECTION('',(0.0,-0.0,-1.0));
#411=CARTESIAN_POINT('',(-2.67716535433071,-0.787401574803149,0.0));
#412=DIRECTION('',(0.0,0.0,1.0));
#413=DIRECTION('',(-1.0,0.0,0.0));
#414=DIRECTION('',(0.0,0.0,1.0));
#415=CARTESIAN_POINT('',(-2.67716535433071,-0.787401574803149,0.236220472440945));
#416=DIRECTION('',(0.0,0.0,-1.0));
#417=DIRECTION('',(-1.0,0.0,0.0));
#418=CARTESIAN_POINT('',(-2.67716535433071,-0.787401574803149,0.236220472440945));
#419=DIRECTION('',(0.0,0.0,-1.0));
#420=DIRECTION('',(-1.0,0.0,0.0));
#421=DIRECTION('',(2.22044604925031E-16,-1.0,0.0));
#422=DIRECTION('',(1.0,0.0,0.0));
#423=DIRECTION('',(0.0,1.0,0.0));
#424=DIRECTION('',(0.0,0.0,1.0));
#425=DIRECTION('',(0.0,1.0,0.0));
#426=CARTESIAN_POINT('',(-2.67716535433071,-0.787401574803149,0.0));
#427=DIRECTION('',(0.0,0.0,1.0));
#428=DIRECTION('',(-1.0,0.0,0.0));
#429=DIRECTION('',(1.0,0.0,0.0));
#430=DIRECTION('',(2.22044604925031E-16,-1.0,0.0));
#431=DIRECTION('',(0.0,0.0,1.0));
ENDSEC;
END-ISO-10303-21;
