ISO-10303-21;
HEADER;
FILE_DESCRIPTION(('TurboCAD Mac Pro'),'Build 980');
FILE_NAME('P1066.stp','  ',(''),(''),'ACIS Interop','IMSI','TurboCAD Mac Pro BY IMSI, INCORPORATED');
FILE_SCHEMA(('automotive_design'));
ENDSEC;
DATA;
#1=MECHANICAL_DESIGN_GEOMETRIC_PRESENTATION_REPRESENTATION(' ',(#10,#11,#12,#13,#14,#15,#16,#17,#18,#19,#20,#21,#22),#6);
#2=PRODUCT_DEFINITION_CONTEXT('',#23,'design');
#3=APPLICATION_PROTOCOL_DEFINITION('INTERNATIONAL STANDARD','automotive_design',1994,#23);
#4=PRODUCT_CATEGORY_RELATIONSHIP('NONE','NONE',#24,#25);
#5=SHAPE_DEFINITION_REPRESENTATION(#26,#27);
#6= (GEOMETRIC_REPRESENTATION_CONTEXT(3)GLOBAL_UNCERTAINTY_ASSIGNED_CONTEXT((#30))GLOBAL_UNIT_ASSIGNED_CONTEXT((#32,#33,#34))REPRESENTATION_CONTEXT('NONE','WORKSPACE'));
#10=STYLED_ITEM('',(#36),#37);
#11=STYLED_ITEM('',(#38),#39);
#12=STYLED_ITEM('',(#40),#41);
#13=STYLED_ITEM('',(#42),#43);
#14=STYLED_ITEM('',(#44),#45);
#15=STYLED_ITEM('',(#46),#47);
#16=STYLED_ITEM('',(#48),#49);
#17=STYLED_ITEM('',(#50),#51);
#18=STYLED_ITEM('',(#52),#53);
#19=STYLED_ITEM('',(#54),#55);
#20=STYLED_ITEM('',(#56),#57);
#21=STYLED_ITEM('',(#58),#59);
#22=STYLED_ITEM('',(#60),#61);
#23=APPLICATION_CONTEXT(' ');
#24=PRODUCT_CATEGORY('part','NONE');
#25=PRODUCT_RELATED_PRODUCT_CATEGORY('detail',' ',(#62));
#26=PRODUCT_DEFINITION_SHAPE('NONE','NONE',#63);
#27=ADVANCED_BREP_SHAPE_REPRESENTATION('1',(#61,#64),#6);
#30=UNCERTAINTY_MEASURE_WITH_UNIT(LENGTH_MEASURE(1.0E-06),#32,'','');
#32= (CONVERSION_BASED_UNIT('INCH',#67)LENGTH_UNIT()NAMED_UNIT(#70));
#33= (NAMED_UNIT(#72)PLANE_ANGLE_UNIT()SI_UNIT($,.RADIAN.));
#34= (NAMED_UNIT(#72)SOLID_ANGLE_UNIT()SI_UNIT($,.STERADIAN.));
#36=PRESENTATION_STYLE_ASSIGNMENT((#78));
#37=ADVANCED_FACE('',(#79),#80,.F.);
#38=PRESENTATION_STYLE_ASSIGNMENT((#81));
#39=ADVANCED_FACE('',(#82),#83,.F.);
#40=PRESENTATION_STYLE_ASSIGNMENT((#84));
#41=ADVANCED_FACE('',(#85,#86,#87,#88),#89,.T.);
#42=PRESENTATION_STYLE_ASSIGNMENT((#90));
#43=ADVANCED_FACE('',(#91),#92,.F.);
#44=PRESENTATION_STYLE_ASSIGNMENT((#93));
#45=ADVANCED_FACE('',(#94),#95,.F.);
#46=PRESENTATION_STYLE_ASSIGNMENT((#96));
#47=ADVANCED_FACE('',(#97),#98,.T.);
#48=PRESENTATION_STYLE_ASSIGNMENT((#99));
#49=ADVANCED_FACE('',(#100,#101,#102,#103),#104,.F.);
#50=PRESENTATION_STYLE_ASSIGNMENT((#105));
#51=ADVANCED_FACE('',(#106),#107,.F.);
#52=PRESENTATION_STYLE_ASSIGNMENT((#108));
#53=ADVANCED_FACE('',(#109),#110,.F.);
#54=PRESENTATION_STYLE_ASSIGNMENT((#111));
#55=ADVANCED_FACE('',(#112),#113,.T.);
#56=PRESENTATION_STYLE_ASSIGNMENT((#114));
#57=ADVANCED_FACE('',(#115),#116,.T.);
#58=PRESENTATION_STYLE_ASSIGNMENT((#117));
#59=ADVANCED_FACE('',(#118),#119,.T.);
#60=PRESENTATION_STYLE_ASSIGNMENT((#120));
#61=MANIFOLD_SOLID_BREP('1',#121);
#62=PRODUCT('1','1','PART-1-DESC',(#122));
#63=PRODUCT_DEFINITION('NONE','NONE',#123,#2);
#64=AXIS2_PLACEMENT_3D('',#124,#125,#126);
#67=LENGTH_MEASURE_WITH_UNIT(LENGTH_MEASURE(25.4),#127);
#70=DIMENSIONAL_EXPONENTS(1.0,0.0,0.0,0.0,0.0,0.0,0.0);
#72=DIMENSIONAL_EXPONENTS(0.0,0.0,0.0,0.0,0.0,0.0,0.0);
#78=SURFACE_STYLE_USAGE(.BOTH.,#128);
#79=FACE_OUTER_BOUND('',#129,.T.);
#80=CYLINDRICAL_SURFACE('',#130,0.275590551181102);
#81=SURFACE_STYLE_USAGE(.BOTH.,#131);
#82=FACE_OUTER_BOUND('',#132,.T.);
#83=CYLINDRICAL_SURFACE('',#133,0.275590551181102);
#84=SURFACE_STYLE_USAGE(.BOTH.,#134);
#85=FACE_BOUND('',#135,.T.);
#86=FACE_BOUND('',#136,.T.);
#87=FACE_BOUND('',#137,.T.);
#88=FACE_OUTER_BOUND('',#138,.T.);
#89=PLANE('',#139);
#90=SURFACE_STYLE_USAGE(.BOTH.,#140);
#91=FACE_OUTER_BOUND('',#141,.T.);
#92=CYLINDRICAL_SURFACE('',#142,0.275590551181102);
#93=SURFACE_STYLE_USAGE(.BOTH.,#143);
#94=FACE_OUTER_BOUND('',#144,.T.);
#95=CYLINDRICAL_SURFACE('',#145,0.275590551181102);
#96=SURFACE_STYLE_USAGE(.BOTH.,#146);
#97=FACE_OUTER_BOUND('',#147,.T.);
#98=PLANE('',#148);
#99=SURFACE_STYLE_USAGE(.BOTH.,#149);
#100=FACE_BOUND('',#150,.T.);
#101=FACE_BOUND('',#151,.T.);
#102=FACE_BOUND('',#152,.T.);
#103=FACE_OUTER_BOUND('',#153,.T.);
#104=PLANE('',#154);
#105=SURFACE_STYLE_USAGE(.BOTH.,#155);
#106=FACE_OUTER_BOUND('',#156,.T.);
#107=CYLINDRICAL_SURFACE('',#157,0.275590551181102);
#108=SURFACE_STYLE_USAGE(.BOTH.,#158);
#109=FACE_OUTER_BOUND('',#159,.T.);
#110=CYLINDRICAL_SURFACE('',#160,0.275590551181102);
#111=SURFACE_STYLE_USAGE(.BOTH.,#161);
#112=FACE_OUTER_BOUND('',#162,.T.);
#113=PLANE('',#163);
#114=SURFACE_STYLE_USAGE(.BOTH.,#164);
#115=FACE_OUTER_BOUND('',#165,.T.);
#116=PLANE('',#166);
#117=SURFACE_STYLE_USAGE(.BOTH.,#167);
#118=FACE_OUTER_BOUND('',#168,.T.);
#119=PLANE('',#169);
#120=SURFACE_STYLE_USAGE(.BOTH.,#170);
#121=CLOSED_SHELL('',(#51,#45,#43,#39,#37,#53,#47,#55,#57,#59,#41,#49));
#122=PRODUCT_CONTEXT('',#23,'mechanical');
#123=PRODUCT_DEFINITION_FORMATION_WITH_SPECIFIED_SOURCE(' ','NONE',#62,.NOT_KNOWN.);
#124=CARTESIAN_POINT('',(0.0,0.0,0.0));
#125=DIRECTION('',(0.0,0.0,1.0));
#126=DIRECTION('',(1.0,0.0,0.0));
#127= (NAMED_UNIT(#70)LENGTH_UNIT()SI_UNIT(.MILLI.,.METRE.));
#128=SURFACE_SIDE_STYLE('',(#172));
#129=EDGE_LOOP('',(#173,#174,#175,#176));
#130=AXIS2_PLACEMENT_3D('',#177,#178,#179);
#131=SURFACE_SIDE_STYLE('',(#180));
#132=EDGE_LOOP('',(#181,#182,#183,#184));
#133=AXIS2_PLACEMENT_3D('',#185,#186,#187);
#134=SURFACE_SIDE_STYLE('',(#188));
#135=EDGE_LOOP('',(#189,#190));
#136=EDGE_LOOP('',(#191,#192));
#137=EDGE_LOOP('',(#193,#194));
#138=EDGE_LOOP('',(#195,#196,#197,#198));
#139=AXIS2_PLACEMENT_3D('',#199,#200,#201);
#140=SURFACE_SIDE_STYLE('',(#202));
#141=EDGE_LOOP('',(#203,#204,#205,#206));
#142=AXIS2_PLACEMENT_3D('',#207,#208,#209);
#143=SURFACE_SIDE_STYLE('',(#210));
#144=EDGE_LOOP('',(#211,#212,#213,#214));
#145=AXIS2_PLACEMENT_3D('',#215,#216,#217);
#146=SURFACE_SIDE_STYLE('',(#218));
#147=EDGE_LOOP('',(#219,#220,#221,#222));
#148=AXIS2_PLACEMENT_3D('',#223,#224,#225);
#149=SURFACE_SIDE_STYLE('',(#226));
#150=EDGE_LOOP('',(#227,#228));
#151=EDGE_LOOP('',(#229,#230));
#152=EDGE_LOOP('',(#231,#232));
#153=EDGE_LOOP('',(#233,#234,#235,#236));
#154=AXIS2_PLACEMENT_3D('',#237,#238,#239);
#155=SURFACE_SIDE_STYLE('',(#240));
#156=EDGE_LOOP('',(#241,#242,#243,#244));
#157=AXIS2_PLACEMENT_3D('',#245,#246,#247);
#158=SURFACE_SIDE_STYLE('',(#248));
#159=EDGE_LOOP('',(#249,#250,#251,#252));
#160=AXIS2_PLACEMENT_3D('',#253,#254,#255);
#161=SURFACE_SIDE_STYLE('',(#256));
#162=EDGE_LOOP('',(#257,#258,#259,#260));
#163=AXIS2_PLACEMENT_3D('',#261,#262,#263);
#164=SURFACE_SIDE_STYLE('',(#264));
#165=EDGE_LOOP('',(#265,#266,#267,#268));
#166=AXIS2_PLACEMENT_3D('',#269,#270,#271);
#167=SURFACE_SIDE_STYLE('',(#272));
#168=EDGE_LOOP('',(#273,#274,#275,#276));
#169=AXIS2_PLACEMENT_3D('',#277,#278,#279);
#170=SURFACE_SIDE_STYLE('',(#280));
#172=SURFACE_STYLE_FILL_AREA(#281);
#173=ORIENTED_EDGE('',*,*,#282,.T.);
#174=ORIENTED_EDGE('',*,*,#283,.F.);
#175=ORIENTED_EDGE('',*,*,#284,.T.);
#176=ORIENTED_EDGE('',*,*,#285,.F.);
#177=CARTESIAN_POINT('',(-2.67716535433071,-0.78740157480315,0.0));
#178=DIRECTION('',(-0.0,-0.0,-1.0));
#179=DIRECTION('',(-1.0,0.0,0.0));
#180=SURFACE_STYLE_FILL_AREA(#286);
#181=ORIENTED_EDGE('',*,*,#287,.T.);
#182=ORIENTED_EDGE('',*,*,#288,.F.);
#183=ORIENTED_EDGE('',*,*,#289,.T.);
#184=ORIENTED_EDGE('',*,*,#290,.F.);
#185=CARTESIAN_POINT('',(-0.78740157480315,-0.78740157480315,0.0));
#186=DIRECTION('',(-0.0,-0.0,-1.0));
#187=DIRECTION('',(-1.0,0.0,0.0));
#188=SURFACE_STYLE_FILL_AREA(#291);
#189=ORIENTED_EDGE('',*,*,#292,.T.);
#190=ORIENTED_EDGE('',*,*,#290,.T.);
#191=ORIENTED_EDGE('',*,*,#293,.T.);
#192=ORIENTED_EDGE('',*,*,#285,.T.);
#193=ORIENTED_EDGE('',*,*,#294,.T.);
#194=ORIENTED_EDGE('',*,*,#295,.T.);
#195=ORIENTED_EDGE('',*,*,#296,.F.);
#196=ORIENTED_EDGE('',*,*,#297,.F.);
#197=ORIENTED_EDGE('',*,*,#298,.F.);
#198=ORIENTED_EDGE('',*,*,#299,.F.);
#199=CARTESIAN_POINT('',(-2.67716535433071,-0.787401574803149,0.236220472440945));
#200=DIRECTION('',(0.0,0.0,1.0));
#201=DIRECTION('',(1.0,0.0,0.0));
#202=SURFACE_STYLE_FILL_AREA(#300);
#203=ORIENTED_EDGE('',*,*,#287,.F.);
#204=ORIENTED_EDGE('',*,*,#292,.F.);
#205=ORIENTED_EDGE('',*,*,#289,.F.);
#206=ORIENTED_EDGE('',*,*,#301,.F.);
#207=CARTESIAN_POINT('',(-0.78740157480315,-0.78740157480315,0.0));
#208=DIRECTION('',(-0.0,-0.0,-1.0));
#209=DIRECTION('',(-1.0,0.0,0.0));
#210=SURFACE_STYLE_FILL_AREA(#302);
#211=ORIENTED_EDGE('',*,*,#282,.F.);
#212=ORIENTED_EDGE('',*,*,#293,.F.);
#213=ORIENTED_EDGE('',*,*,#284,.F.);
#214=ORIENTED_EDGE('',*,*,#303,.F.);
#215=CARTESIAN_POINT('',(-2.67716535433071,-0.78740157480315,0.0));
#216=DIRECTION('',(-0.0,-0.0,-1.0));
#217=DIRECTION('',(-1.0,0.0,0.0));
#218=SURFACE_STYLE_FILL_AREA(#304);
#219=ORIENTED_EDGE('',*,*,#296,.T.);
#220=ORIENTED_EDGE('',*,*,#305,.F.);
#221=ORIENTED_EDGE('',*,*,#306,.F.);
#222=ORIENTED_EDGE('',*,*,#307,.T.);
#223=CARTESIAN_POINT('',(0.0,0.0,0.0));
#224=DIRECTION('',(1.0,0.0,0.0));
#225=DIRECTION('',(0.0,0.0,-1.0));
#226=SURFACE_STYLE_FILL_AREA(#308);
#227=ORIENTED_EDGE('',*,*,#288,.T.);
#228=ORIENTED_EDGE('',*,*,#301,.T.);
#229=ORIENTED_EDGE('',*,*,#283,.T.);
#230=ORIENTED_EDGE('',*,*,#303,.T.);
#231=ORIENTED_EDGE('',*,*,#309,.T.);
#232=ORIENTED_EDGE('',*,*,#310,.T.);
#233=ORIENTED_EDGE('',*,*,#311,.T.);
#234=ORIENTED_EDGE('',*,*,#306,.T.);
#235=ORIENTED_EDGE('',*,*,#312,.T.);
#236=ORIENTED_EDGE('',*,*,#313,.T.);
#237=CARTESIAN_POINT('',(-2.67716535433071,-0.787401574803149,0.0));
#238=DIRECTION('',(0.0,0.0,1.0));
#239=DIRECTION('',(1.0,0.0,0.0));
#240=SURFACE_STYLE_FILL_AREA(#314);
#241=ORIENTED_EDGE('',*,*,#315,.F.);
#242=ORIENTED_EDGE('',*,*,#294,.F.);
#243=ORIENTED_EDGE('',*,*,#316,.F.);
#244=ORIENTED_EDGE('',*,*,#310,.F.);
#245=CARTESIAN_POINT('',(-4.56692913385827,-0.787401574803149,0.0));
#246=DIRECTION('',(-0.0,-0.0,-1.0));
#247=DIRECTION('',(-1.0,0.0,0.0));
#248=SURFACE_STYLE_FILL_AREA(#317);
#249=ORIENTED_EDGE('',*,*,#315,.T.);
#250=ORIENTED_EDGE('',*,*,#309,.F.);
#251=ORIENTED_EDGE('',*,*,#316,.T.);
#252=ORIENTED_EDGE('',*,*,#295,.F.);
#253=CARTESIAN_POINT('',(-4.56692913385827,-0.787401574803149,0.0));
#254=DIRECTION('',(-0.0,-0.0,-1.0));
#255=DIRECTION('',(-1.0,0.0,0.0));
#256=SURFACE_STYLE_FILL_AREA(#318);
#257=ORIENTED_EDGE('',*,*,#299,.T.);
#258=ORIENTED_EDGE('',*,*,#319,.F.);
#259=ORIENTED_EDGE('',*,*,#312,.F.);
#260=ORIENTED_EDGE('',*,*,#305,.T.);
#261=CARTESIAN_POINT('',(0.0,-1.5748031496063,0.0));
#262=DIRECTION('',(9.79608551139844E-17,-1.0,0.0));
#263=DIRECTION('',(0.0,0.0,-1.0));
#264=SURFACE_STYLE_FILL_AREA(#320);
#265=ORIENTED_EDGE('',*,*,#298,.T.);
#266=ORIENTED_EDGE('',*,*,#321,.F.);
#267=ORIENTED_EDGE('',*,*,#313,.F.);
#268=ORIENTED_EDGE('',*,*,#319,.T.);
#269=CARTESIAN_POINT('',(-5.35433070866142,-1.5748031496063,0.0));
#270=DIRECTION('',(-1.0,0.0,0.0));
#271=DIRECTION('',(0.0,0.0,1.0));
#272=SURFACE_STYLE_FILL_AREA(#322);
#273=ORIENTED_EDGE('',*,*,#297,.T.);
#274=ORIENTED_EDGE('',*,*,#307,.F.);
#275=ORIENTED_EDGE('',*,*,#311,.F.);
#276=ORIENTED_EDGE('',*,*,#321,.T.);
#277=CARTESIAN_POINT('',(-5.35433070866142,0.0,0.0));
#278=DIRECTION('',(0.0,1.0,0.0));
#279=DIRECTION('',(0.0,0.0,1.0));
#280=SURFACE_STYLE_FILL_AREA(#323);
#281=FILL_AREA_STYLE('',(#324));
#282=EDGE_CURVE('',#325,#326,#327,.T.);
#283=EDGE_CURVE('',#328,#326,#329,.T.);
#284=EDGE_CURVE('',#328,#330,#331,.T.);
#285=EDGE_CURVE('',#325,#330,#332,.T.);
#286=FILL_AREA_STYLE('',(#333));
#287=EDGE_CURVE('',#334,#335,#336,.T.);
#288=EDGE_CURVE('',#337,#335,#338,.T.);
#289=EDGE_CURVE('',#337,#339,#340,.T.);
#290=EDGE_CURVE('',#334,#339,#341,.T.);
#291=FILL_AREA_STYLE('',(#342));
#292=EDGE_CURVE('',#339,#334,#343,.T.);
#293=EDGE_CURVE('',#330,#325,#344,.T.);
#294=EDGE_CURVE('',#345,#346,#347,.T.);
#295=EDGE_CURVE('',#346,#345,#348,.T.);
#296=EDGE_CURVE('',#349,#350,#351,.T.);
#297=EDGE_CURVE('',#352,#349,#353,.T.);
#298=EDGE_CURVE('',#354,#352,#355,.T.);
#299=EDGE_CURVE('',#350,#354,#356,.T.);
#300=FILL_AREA_STYLE('',(#357));
#301=EDGE_CURVE('',#335,#337,#358,.T.);
#302=FILL_AREA_STYLE('',(#359));
#303=EDGE_CURVE('',#326,#328,#360,.T.);
#304=FILL_AREA_STYLE('',(#361));
#305=EDGE_CURVE('',#362,#350,#363,.T.);
#306=EDGE_CURVE('',#364,#362,#365,.T.);
#307=EDGE_CURVE('',#364,#349,#366,.T.);
#308=FILL_AREA_STYLE('',(#367));
#309=EDGE_CURVE('',#368,#369,#370,.T.);
#310=EDGE_CURVE('',#369,#368,#371,.T.);
#311=EDGE_CURVE('',#372,#364,#373,.T.);
#312=EDGE_CURVE('',#362,#374,#375,.T.);
#313=EDGE_CURVE('',#374,#372,#376,.T.);
#314=FILL_AREA_STYLE('',(#377));
#315=EDGE_CURVE('',#346,#369,#378,.T.);
#316=EDGE_CURVE('',#368,#345,#379,.T.);
#317=FILL_AREA_STYLE('',(#380));
#318=FILL_AREA_STYLE('',(#381));
#319=EDGE_CURVE('',#374,#354,#382,.T.);
#320=FILL_AREA_STYLE('',(#383));
#321=EDGE_CURVE('',#372,#352,#384,.T.);
#322=FILL_AREA_STYLE('',(#385));
#323=FILL_AREA_STYLE('',(#386));
#324=FILL_AREA_STYLE_COLOUR('',#387);
#325=VERTEX_POINT('',#388);
#326=VERTEX_POINT('',#389);
#327=LINE('',#390,#391);
#328=VERTEX_POINT('',#392);
#329=CIRCLE('',#393,0.275590551181102);
#330=VERTEX_POINT('',#394);
#331=LINE('',#395,#396);
#332=CIRCLE('',#397,0.275590551181102);
#333=FILL_AREA_STYLE_COLOUR('',#398);
#334=VERTEX_POINT('',#399);
#335=VERTEX_POINT('',#400);
#336=LINE('',#401,#402);
#337=VERTEX_POINT('',#403);
#338=CIRCLE('',#404,0.275590551181102);
#339=VERTEX_POINT('',#405);
#340=LINE('',#406,#407);
#341=CIRCLE('',#408,0.275590551181102);
#342=FILL_AREA_STYLE_COLOUR('',#409);
#343=CIRCLE('',#410,0.275590551181102);
#344=CIRCLE('',#411,0.275590551181102);
#345=VERTEX_POINT('',#412);
#346=VERTEX_POINT('',#413);
#347=CIRCLE('',#414,0.275590551181102);
#348=CIRCLE('',#415,0.275590551181102);
#349=VERTEX_POINT('',#416);
#350=VERTEX_POINT('',#417);
#351=LINE('',#418,#419);
#352=VERTEX_POINT('',#420);
#353=LINE('',#421,#422);
#354=VERTEX_POINT('',#423);
#355=LINE('',#424,#425);
#356=LINE('',#426,#427);
#357=FILL_AREA_STYLE_COLOUR('',#428);
#358=CIRCLE('',#429,0.275590551181102);
#359=FILL_AREA_STYLE_COLOUR('',#430);
#360=CIRCLE('',#431,0.275590551181102);
#361=FILL_AREA_STYLE_COLOUR('',#432);
#362=VERTEX_POINT('',#433);
#363=LINE('',#434,#435);
#364=VERTEX_POINT('',#436);
#365=LINE('',#437,#438);
#366=LINE('',#439,#440);
#367=FILL_AREA_STYLE_COLOUR('',#441);
#368=VERTEX_POINT('',#442);
#369=VERTEX_POINT('',#443);
#370=CIRCLE('',#444,0.275590551181102);
#371=CIRCLE('',#445,0.275590551181102);
#372=VERTEX_POINT('',#446);
#373=LINE('',#447,#448);
#374=VERTEX_POINT('',#449);
#375=LINE('',#450,#451);
#376=LINE('',#452,#453);
#377=FILL_AREA_STYLE_COLOUR('',#454);
#378=LINE('',#455,#456);
#379=LINE('',#457,#458);
#380=FILL_AREA_STYLE_COLOUR('',#459);
#381=FILL_AREA_STYLE_COLOUR('',#460);
#382=LINE('',#461,#462);
#383=FILL_AREA_STYLE_COLOUR('',#463);
#384=LINE('',#464,#465);
#385=FILL_AREA_STYLE_COLOUR('',#466);
#386=FILL_AREA_STYLE_COLOUR('',#467);
#387=COLOUR_RGB('',0.0,1.0,0.0);
#388=CARTESIAN_POINT('',(-2.95275590551181,-0.78740157480315,0.236220472440945));
#389=CARTESIAN_POINT('',(-2.95275590551181,-0.78740157480315,0.0));
#390=CARTESIAN_POINT('',(-2.95275590551181,-0.78740157480315,0.0));
#391=VECTOR('',#468,1.0);
#392=CARTESIAN_POINT('',(-2.40157480314961,-0.78740157480315,0.0));
#393=AXIS2_PLACEMENT_3D('',#469,#470,#471);
#394=CARTESIAN_POINT('',(-2.40157480314961,-0.78740157480315,0.236220472440945));
#395=CARTESIAN_POINT('',(-2.40157480314961,-0.78740157480315,0.0));
#396=VECTOR('',#472,1.0);
#397=AXIS2_PLACEMENT_3D('',#473,#474,#475);
#398=COLOUR_RGB('',0.0,1.0,0.0);
#399=CARTESIAN_POINT('',(-1.06299212598425,-0.78740157480315,0.236220472440945));
#400=CARTESIAN_POINT('',(-1.06299212598425,-0.78740157480315,0.0));
#401=CARTESIAN_POINT('',(-1.06299212598425,-0.78740157480315,0.0));
#402=VECTOR('',#476,1.0);
#403=CARTESIAN_POINT('',(-0.511811023622048,-0.78740157480315,0.0));
#404=AXIS2_PLACEMENT_3D('',#477,#478,#479);
#405=CARTESIAN_POINT('',(-0.511811023622048,-0.78740157480315,0.236220472440945));
#406=CARTESIAN_POINT('',(-0.511811023622048,-0.78740157480315,0.0));
#407=VECTOR('',#480,1.0);
#408=AXIS2_PLACEMENT_3D('',#481,#482,#483);
#409=COLOUR_RGB('',0.0,1.0,0.0);
#410=AXIS2_PLACEMENT_3D('',#484,#485,#486);
#411=AXIS2_PLACEMENT_3D('',#487,#488,#489);
#412=CARTESIAN_POINT('',(-4.29133858267717,-0.787401574803149,0.236220472440945));
#413=CARTESIAN_POINT('',(-4.84251968503937,-0.787401574803149,0.236220472440945));
#414=AXIS2_PLACEMENT_3D('',#490,#491,#492);
#415=AXIS2_PLACEMENT_3D('',#493,#494,#495);
#416=CARTESIAN_POINT('',(0.0,0.0,0.236220472440945));
#417=CARTESIAN_POINT('',(0.0,-1.5748031496063,0.236220472440945));
#418=CARTESIAN_POINT('',(0.0,0.0,0.236220472440945));
#419=VECTOR('',#496,0.393700787401575);
#420=CARTESIAN_POINT('',(-5.35433070866142,0.0,0.236220472440945));
#421=CARTESIAN_POINT('',(-5.35433070866142,0.0,0.236220472440945));
#422=VECTOR('',#497,0.393700787401575);
#423=CARTESIAN_POINT('',(-5.35433070866142,-1.5748031496063,0.236220472440945));
#424=CARTESIAN_POINT('',(-5.35433070866142,-1.5748031496063,0.236220472440945));
#425=VECTOR('',#498,0.393700787401575);
#426=CARTESIAN_POINT('',(0.0,-1.5748031496063,0.236220472440945));
#427=VECTOR('',#499,0.393700787401575);
#428=COLOUR_RGB('',0.0,1.0,0.0);
#429=AXIS2_PLACEMENT_3D('',#500,#501,#502);
#430=COLOUR_RGB('',0.0,1.0,0.0);
#431=AXIS2_PLACEMENT_3D('',#503,#504,#505);
#432=COLOUR_RGB('',0.0,1.0,0.0);
#433=CARTESIAN_POINT('',(0.0,-1.5748031496063,0.0));
#434=CARTESIAN_POINT('',(0.0,-1.5748031496063,0.0));
#435=VECTOR('',#506,0.393700787401575);
#436=CARTESIAN_POINT('',(0.0,0.0,0.0));
#437=CARTESIAN_POINT('',(0.0,0.0,0.0));
#438=VECTOR('',#507,0.393700787401575);
#439=CARTESIAN_POINT('',(0.0,0.0,0.0));
#440=VECTOR('',#508,0.393700787401575);
#441=COLOUR_RGB('',0.0,1.0,0.0);
#442=CARTESIAN_POINT('',(-4.29133858267717,-0.787401574803149,0.0));
#443=CARTESIAN_POINT('',(-4.84251968503937,-0.787401574803149,0.0));
#444=AXIS2_PLACEMENT_3D('',#509,#510,#511);
#445=AXIS2_PLACEMENT_3D('',#512,#513,#514);
#446=CARTESIAN_POINT('',(-5.35433070866142,0.0,0.0));
#447=CARTESIAN_POINT('',(-5.35433070866142,0.0,0.0));
#448=VECTOR('',#515,0.393700787401575);
#449=CARTESIAN_POINT('',(-5.35433070866142,-1.5748031496063,0.0));
#450=CARTESIAN_POINT('',(0.0,-1.5748031496063,0.0));
#451=VECTOR('',#516,0.393700787401575);
#452=CARTESIAN_POINT('',(-5.35433070866142,-1.5748031496063,0.0));
#453=VECTOR('',#517,0.393700787401575);
#454=COLOUR_RGB('',0.0,1.0,0.0);
#455=CARTESIAN_POINT('',(-4.84251968503937,-0.787401574803149,0.0));
#456=VECTOR('',#518,1.0);
#457=CARTESIAN_POINT('',(-4.29133858267717,-0.787401574803149,0.0));
#458=VECTOR('',#519,1.0);
#459=COLOUR_RGB('',0.0,1.0,0.0);
#460=COLOUR_RGB('',0.0,1.0,0.0);
#461=CARTESIAN_POINT('',(-5.35433070866142,-1.5748031496063,0.0));
#462=VECTOR('',#520,0.393700787401575);
#463=COLOUR_RGB('',0.0,1.0,0.0);
#464=CARTESIAN_POINT('',(-5.35433070866142,0.0,0.0));
#465=VECTOR('',#521,0.393700787401575);
#466=COLOUR_RGB('',0.0,1.0,0.0);
#467=COLOUR_RGB('',0.0,1.0,0.0);
#468=DIRECTION('',(0.0,-0.0,-1.0));
#469=CARTESIAN_POINT('',(-2.67716535433071,-0.78740157480315,0.0));
#470=DIRECTION('',(0.0,0.0,1.0));
#471=DIRECTION('',(-1.0,0.0,0.0));
#472=DIRECTION('',(0.0,0.0,1.0));
#473=CARTESIAN_POINT('',(-2.67716535433071,-0.78740157480315,0.236220472440945));
#474=DIRECTION('',(0.0,0.0,-1.0));
#475=DIRECTION('',(-1.0,0.0,0.0));
#476=DIRECTION('',(0.0,-0.0,-1.0));
#477=CARTESIAN_POINT('',(-0.78740157480315,-0.78740157480315,0.0));
#478=DIRECTION('',(0.0,0.0,1.0));
#479=DIRECTION('',(-1.0,0.0,0.0));
#480=DIRECTION('',(0.0,0.0,1.0));
#481=CARTESIAN_POINT('',(-0.78740157480315,-0.78740157480315,0.236220472440945));
#482=DIRECTION('',(0.0,0.0,-1.0));
#483=DIRECTION('',(-1.0,0.0,0.0));
#484=CARTESIAN_POINT('',(-0.78740157480315,-0.78740157480315,0.236220472440945));
#485=DIRECTION('',(0.0,0.0,-1.0));
#486=DIRECTION('',(-1.0,0.0,0.0));
#487=CARTESIAN_POINT('',(-2.67716535433071,-0.78740157480315,0.236220472440945));
#488=DIRECTION('',(0.0,0.0,-1.0));
#489=DIRECTION('',(-1.0,0.0,0.0));
#490=CARTESIAN_POINT('',(-4.56692913385827,-0.787401574803149,0.236220472440945));
#491=DIRECTION('',(0.0,0.0,-1.0));
#492=DIRECTION('',(-1.0,0.0,0.0));
#493=CARTESIAN_POINT('',(-4.56692913385827,-0.787401574803149,0.236220472440945));
#494=DIRECTION('',(0.0,0.0,-1.0));
#495=DIRECTION('',(-1.0,0.0,0.0));
#496=DIRECTION('',(0.0,-1.0,0.0));
#497=DIRECTION('',(1.0,0.0,0.0));
#498=DIRECTION('',(0.0,1.0,0.0));
#499=DIRECTION('',(-1.0,-9.79608551139844E-17,0.0));
#500=CARTESIAN_POINT('',(-0.78740157480315,-0.78740157480315,0.0));
#501=DIRECTION('',(0.0,0.0,1.0));
#502=DIRECTION('',(-1.0,0.0,0.0));
#503=CARTESIAN_POINT('',(-2.67716535433071,-0.78740157480315,0.0));
#504=DIRECTION('',(0.0,0.0,1.0));
#505=DIRECTION('',(-1.0,0.0,0.0));
#506=DIRECTION('',(0.0,0.0,1.0));
#507=DIRECTION('',(0.0,-1.0,0.0));
#508=DIRECTION('',(0.0,0.0,1.0));
#509=CARTESIAN_POINT('',(-4.56692913385827,-0.787401574803149,0.0));
#510=DIRECTION('',(0.0,0.0,1.0));
#511=DIRECTION('',(-1.0,0.0,0.0));
#512=CARTESIAN_POINT('',(-4.56692913385827,-0.787401574803149,0.0));
#513=DIRECTION('',(0.0,0.0,1.0));
#514=DIRECTION('',(-1.0,0.0,0.0));
#515=DIRECTION('',(1.0,0.0,0.0));
#516=DIRECTION('',(-1.0,-9.79608551139844E-17,0.0));
#517=DIRECTION('',(0.0,1.0,0.0));
#518=DIRECTION('',(0.0,-0.0,-1.0));
#519=DIRECTION('',(0.0,0.0,1.0));
#520=DIRECTION('',(0.0,0.0,1.0));
#521=DIRECTION('',(0.0,0.0,1.0));
ENDSEC;
END-ISO-10303-21;
