ISO-10303-21;
HEADER;
FILE_DESCRIPTION(('TurboCAD Mac Pro'),'Build 980');
FILE_NAME('P1067.stp','  ',(''),(''),'ACIS Interop','IMSI','TurboCAD Mac Pro BY IMSI, INCORPORATED');
FILE_SCHEMA(('automotive_design'));
ENDSEC;
DATA;
#1=MECHANICAL_DESIGN_GEOMETRIC_PRESENTATION_REPRESENTATION(' ',(#10,#11,#12,#13,#14,#15,#16,#17,#18,#19,#20,#21,#22,#23,#24),#6);
#2=PRODUCT_DEFINITION_CONTEXT('',#25,'design');
#3=APPLICATION_PROTOCOL_DEFINITION('INTERNATIONAL STANDARD','automotive_design',1994,#25);
#4=PRODUCT_CATEGORY_RELATIONSHIP('NONE','NONE',#26,#27);
#5=SHAPE_DEFINITION_REPRESENTATION(#28,#29);
#6= (GEOMETRIC_REPRESENTATION_CONTEXT(3)GLOBAL_UNCERTAINTY_ASSIGNED_CONTEXT((#32))GLOBAL_UNIT_ASSIGNED_CONTEXT((#34,#35,#36))REPRESENTATION_CONTEXT('NONE','WORKSPACE'));
#10=STYLED_ITEM('',(#38),#39);
#11=STYLED_ITEM('',(#40),#41);
#12=STYLED_ITEM('',(#42),#43);
#13=STYLED_ITEM('',(#44),#45);
#14=STYLED_ITEM('',(#46),#47);
#15=STYLED_ITEM('',(#48),#49);
#16=STYLED_ITEM('',(#50),#51);
#17=STYLED_ITEM('',(#52),#53);
#18=STYLED_ITEM('',(#54),#55);
#19=STYLED_ITEM('',(#56),#57);
#20=STYLED_ITEM('',(#58),#59);
#21=STYLED_ITEM('',(#60),#61);
#22=STYLED_ITEM('',(#62),#63);
#23=STYLED_ITEM('',(#64),#65);
#24=STYLED_ITEM('',(#66),#67);
#25=APPLICATION_CONTEXT(' ');
#26=PRODUCT_CATEGORY('part','NONE');
#27=PRODUCT_RELATED_PRODUCT_CATEGORY('detail',' ',(#68));
#28=PRODUCT_DEFINITION_SHAPE('NONE','NONE',#69);
#29=ADVANCED_BREP_SHAPE_REPRESENTATION('1',(#53,#70),#6);
#32=UNCERTAINTY_MEASURE_WITH_UNIT(LENGTH_MEASURE(1.0E-06),#34,'','');
#34= (CONVERSION_BASED_UNIT('INCH',#73)LENGTH_UNIT()NAMED_UNIT(#76));
#35= (NAMED_UNIT(#78)PLANE_ANGLE_UNIT()SI_UNIT($,.RADIAN.));
#36= (NAMED_UNIT(#78)SOLID_ANGLE_UNIT()SI_UNIT($,.STERADIAN.));
#38=PRESENTATION_STYLE_ASSIGNMENT((#84));
#39=ADVANCED_FACE('',(#85,#86,#87,#88,#89),#90,.F.);
#40=PRESENTATION_STYLE_ASSIGNMENT((#91));
#41=ADVANCED_FACE('',(#92),#93,.F.);
#42=PRESENTATION_STYLE_ASSIGNMENT((#94));
#43=ADVANCED_FACE('',(#95),#96,.T.);
#44=PRESENTATION_STYLE_ASSIGNMENT((#97));
#45=ADVANCED_FACE('',(#98),#99,.F.);
#46=PRESENTATION_STYLE_ASSIGNMENT((#100));
#47=ADVANCED_FACE('',(#101),#102,.F.);
#48=PRESENTATION_STYLE_ASSIGNMENT((#103));
#49=ADVANCED_FACE('',(#104),#105,.T.);
#50=PRESENTATION_STYLE_ASSIGNMENT((#106));
#51=ADVANCED_FACE('',(#107),#108,.F.);
#52=PRESENTATION_STYLE_ASSIGNMENT((#109));
#53=MANIFOLD_SOLID_BREP('1',#110);
#54=PRESENTATION_STYLE_ASSIGNMENT((#111));
#55=ADVANCED_FACE('',(#112),#113,.T.);
#56=PRESENTATION_STYLE_ASSIGNMENT((#114));
#57=ADVANCED_FACE('',(#115),#116,.F.);
#58=PRESENTATION_STYLE_ASSIGNMENT((#117));
#59=ADVANCED_FACE('',(#118),#119,.T.);
#60=PRESENTATION_STYLE_ASSIGNMENT((#120));
#61=ADVANCED_FACE('',(#121),#122,.F.);
#62=PRESENTATION_STYLE_ASSIGNMENT((#123));
#63=ADVANCED_FACE('',(#124,#125,#126,#127,#128),#129,.T.);
#64=PRESENTATION_STYLE_ASSIGNMENT((#130));
#65=ADVANCED_FACE('',(#131),#132,.F.);
#66=PRESENTATION_STYLE_ASSIGNMENT((#133));
#67=ADVANCED_FACE('',(#134),#135,.F.);
#68=PRODUCT('1','1','PART-1-DESC',(#136));
#69=PRODUCT_DEFINITION('NONE','NONE',#137,#2);
#70=AXIS2_PLACEMENT_3D('',#138,#139,#140);
#73=LENGTH_MEASURE_WITH_UNIT(LENGTH_MEASURE(25.4),#141);
#76=DIMENSIONAL_EXPONENTS(1.0,0.0,0.0,0.0,0.0,0.0,0.0);
#78=DIMENSIONAL_EXPONENTS(0.0,0.0,0.0,0.0,0.0,0.0,0.0);
#84=SURFACE_STYLE_USAGE(.BOTH.,#142);
#85=FACE_BOUND('',#143,.T.);
#86=FACE_BOUND('',#144,.T.);
#87=FACE_BOUND('',#145,.T.);
#88=FACE_BOUND('',#146,.T.);
#89=FACE_OUTER_BOUND('',#147,.T.);
#90=PLANE('',#148);
#91=SURFACE_STYLE_USAGE(.BOTH.,#149);
#92=FACE_OUTER_BOUND('',#150,.T.);
#93=CYLINDRICAL_SURFACE('',#151,0.275590551181102);
#94=SURFACE_STYLE_USAGE(.BOTH.,#152);
#95=FACE_OUTER_BOUND('',#153,.T.);
#96=PLANE('',#154);
#97=SURFACE_STYLE_USAGE(.BOTH.,#155);
#98=FACE_OUTER_BOUND('',#156,.T.);
#99=CYLINDRICAL_SURFACE('',#157,0.275590551181102);
#100=SURFACE_STYLE_USAGE(.BOTH.,#158);
#101=FACE_OUTER_BOUND('',#159,.T.);
#102=CYLINDRICAL_SURFACE('',#160,0.275590551181102);
#103=SURFACE_STYLE_USAGE(.BOTH.,#161);
#104=FACE_OUTER_BOUND('',#162,.T.);
#105=PLANE('',#163);
#106=SURFACE_STYLE_USAGE(.BOTH.,#164);
#107=FACE_OUTER_BOUND('',#165,.T.);
#108=CYLINDRICAL_SURFACE('',#166,0.275590551181102);
#109=SURFACE_STYLE_USAGE(.BOTH.,#167);
#110=CLOSED_SHELL('',(#61,#47,#65,#57,#41,#51,#45,#67,#43,#59,#55,#49,#63,#39));
#111=SURFACE_STYLE_USAGE(.BOTH.,#168);
#112=FACE_OUTER_BOUND('',#169,.T.);
#113=PLANE('',#170);
#114=SURFACE_STYLE_USAGE(.BOTH.,#171);
#115=FACE_OUTER_BOUND('',#172,.T.);
#116=CYLINDRICAL_SURFACE('',#173,0.275590551181102);
#117=SURFACE_STYLE_USAGE(.BOTH.,#174);
#118=FACE_OUTER_BOUND('',#175,.T.);
#119=PLANE('',#176);
#120=SURFACE_STYLE_USAGE(.BOTH.,#177);
#121=FACE_OUTER_BOUND('',#178,.T.);
#122=CYLINDRICAL_SURFACE('',#179,0.275590551181102);
#123=SURFACE_STYLE_USAGE(.BOTH.,#180);
#124=FACE_BOUND('',#181,.T.);
#125=FACE_BOUND('',#182,.T.);
#126=FACE_BOUND('',#183,.T.);
#127=FACE_BOUND('',#184,.T.);
#128=FACE_OUTER_BOUND('',#185,.T.);
#129=PLANE('',#186);
#130=SURFACE_STYLE_USAGE(.BOTH.,#187);
#131=FACE_OUTER_BOUND('',#188,.T.);
#132=CYLINDRICAL_SURFACE('',#189,0.275590551181102);
#133=SURFACE_STYLE_USAGE(.BOTH.,#190);
#134=FACE_OUTER_BOUND('',#191,.T.);
#135=CYLINDRICAL_SURFACE('',#192,0.275590551181102);
#136=PRODUCT_CONTEXT('',#25,'mechanical');
#137=PRODUCT_DEFINITION_FORMATION_WITH_SPECIFIED_SOURCE(' ','NONE',#68,.NOT_KNOWN.);
#138=CARTESIAN_POINT('',(0.0,0.0,0.0));
#139=DIRECTION('',(0.0,0.0,1.0));
#140=DIRECTION('',(1.0,0.0,0.0));
#141= (NAMED_UNIT(#76)LENGTH_UNIT()SI_UNIT(.MILLI.,.METRE.));
#142=SURFACE_SIDE_STYLE('',(#194));
#143=EDGE_LOOP('',(#195,#196));
#144=EDGE_LOOP('',(#197,#198));
#145=EDGE_LOOP('',(#199,#200));
#146=EDGE_LOOP('',(#201,#202));
#147=EDGE_LOOP('',(#203,#204,#205,#206));
#148=AXIS2_PLACEMENT_3D('',#207,#208,#209);
#149=SURFACE_SIDE_STYLE('',(#210));
#150=EDGE_LOOP('',(#211,#212,#213,#214));
#151=AXIS2_PLACEMENT_3D('',#215,#216,#217);
#152=SURFACE_SIDE_STYLE('',(#218));
#153=EDGE_LOOP('',(#219,#220,#221,#222));
#154=AXIS2_PLACEMENT_3D('',#223,#224,#225);
#155=SURFACE_SIDE_STYLE('',(#226));
#156=EDGE_LOOP('',(#227,#228,#229,#230));
#157=AXIS2_PLACEMENT_3D('',#231,#232,#233);
#158=SURFACE_SIDE_STYLE('',(#234));
#159=EDGE_LOOP('',(#235,#236,#237,#238));
#160=AXIS2_PLACEMENT_3D('',#239,#240,#241);
#161=SURFACE_SIDE_STYLE('',(#242));
#162=EDGE_LOOP('',(#243,#244,#245,#246));
#163=AXIS2_PLACEMENT_3D('',#247,#248,#249);
#164=SURFACE_SIDE_STYLE('',(#250));
#165=EDGE_LOOP('',(#251,#252,#253,#254));
#166=AXIS2_PLACEMENT_3D('',#255,#256,#257);
#167=SURFACE_SIDE_STYLE('',(#258));
#168=SURFACE_SIDE_STYLE('',(#259));
#169=EDGE_LOOP('',(#260,#261,#262,#263));
#170=AXIS2_PLACEMENT_3D('',#264,#265,#266);
#171=SURFACE_SIDE_STYLE('',(#267));
#172=EDGE_LOOP('',(#268,#269,#270,#271));
#173=AXIS2_PLACEMENT_3D('',#272,#273,#274);
#174=SURFACE_SIDE_STYLE('',(#275));
#175=EDGE_LOOP('',(#276,#277,#278,#279));
#176=AXIS2_PLACEMENT_3D('',#280,#281,#282);
#177=SURFACE_SIDE_STYLE('',(#283));
#178=EDGE_LOOP('',(#284,#285,#286,#287));
#179=AXIS2_PLACEMENT_3D('',#288,#289,#290);
#180=SURFACE_SIDE_STYLE('',(#291));
#181=EDGE_LOOP('',(#292,#293));
#182=EDGE_LOOP('',(#294,#295));
#183=EDGE_LOOP('',(#296,#297));
#184=EDGE_LOOP('',(#298,#299));
#185=EDGE_LOOP('',(#300,#301,#302,#303));
#186=AXIS2_PLACEMENT_3D('',#304,#305,#306);
#187=SURFACE_SIDE_STYLE('',(#307));
#188=EDGE_LOOP('',(#308,#309,#310,#311));
#189=AXIS2_PLACEMENT_3D('',#312,#313,#314);
#190=SURFACE_SIDE_STYLE('',(#315));
#191=EDGE_LOOP('',(#316,#317,#318,#319));
#192=AXIS2_PLACEMENT_3D('',#320,#321,#322);
#194=SURFACE_STYLE_FILL_AREA(#323);
#195=ORIENTED_EDGE('',*,*,#324,.T.);
#196=ORIENTED_EDGE('',*,*,#325,.T.);
#197=ORIENTED_EDGE('',*,*,#326,.T.);
#198=ORIENTED_EDGE('',*,*,#327,.T.);
#199=ORIENTED_EDGE('',*,*,#328,.T.);
#200=ORIENTED_EDGE('',*,*,#329,.T.);
#201=ORIENTED_EDGE('',*,*,#330,.T.);
#202=ORIENTED_EDGE('',*,*,#331,.T.);
#203=ORIENTED_EDGE('',*,*,#332,.T.);
#204=ORIENTED_EDGE('',*,*,#333,.T.);
#205=ORIENTED_EDGE('',*,*,#334,.T.);
#206=ORIENTED_EDGE('',*,*,#335,.T.);
#207=CARTESIAN_POINT('',(-3.62204724409449,-0.78740157480315,0.0));
#208=DIRECTION('',(0.0,0.0,1.0));
#209=DIRECTION('',(1.0,0.0,0.0));
#210=SURFACE_STYLE_FILL_AREA(#336);
#211=ORIENTED_EDGE('',*,*,#337,.T.);
#212=ORIENTED_EDGE('',*,*,#324,.F.);
#213=ORIENTED_EDGE('',*,*,#338,.T.);
#214=ORIENTED_EDGE('',*,*,#339,.F.);
#215=CARTESIAN_POINT('',(-0.78740157480315,-0.78740157480315,0.0));
#216=DIRECTION('',(-0.0,-0.0,-1.0));
#217=DIRECTION('',(-1.0,0.0,0.0));
#218=SURFACE_STYLE_FILL_AREA(#340);
#219=ORIENTED_EDGE('',*,*,#341,.T.);
#220=ORIENTED_EDGE('',*,*,#342,.F.);
#221=ORIENTED_EDGE('',*,*,#333,.F.);
#222=ORIENTED_EDGE('',*,*,#343,.T.);
#223=CARTESIAN_POINT('',(0.0,0.0,0.0));
#224=DIRECTION('',(1.0,0.0,0.0));
#225=DIRECTION('',(0.0,0.0,-1.0));
#226=SURFACE_STYLE_FILL_AREA(#344);
#227=ORIENTED_EDGE('',*,*,#345,.T.);
#228=ORIENTED_EDGE('',*,*,#328,.F.);
#229=ORIENTED_EDGE('',*,*,#346,.T.);
#230=ORIENTED_EDGE('',*,*,#347,.F.);
#231=CARTESIAN_POINT('',(-4.56692913385827,-0.78740157480315,0.0));
#232=DIRECTION('',(-0.0,-0.0,-1.0));
#233=DIRECTION('',(-1.0,0.0,0.0));
#234=SURFACE_STYLE_FILL_AREA(#348);
#235=ORIENTED_EDGE('',*,*,#345,.F.);
#236=ORIENTED_EDGE('',*,*,#349,.F.);
#237=ORIENTED_EDGE('',*,*,#346,.F.);
#238=ORIENTED_EDGE('',*,*,#329,.F.);
#239=CARTESIAN_POINT('',(-4.56692913385827,-0.78740157480315,0.0));
#240=DIRECTION('',(-0.0,-0.0,-1.0));
#241=DIRECTION('',(-1.0,0.0,0.0));
#242=SURFACE_STYLE_FILL_AREA(#350);
#243=ORIENTED_EDGE('',*,*,#351,.T.);
#244=ORIENTED_EDGE('',*,*,#343,.F.);
#245=ORIENTED_EDGE('',*,*,#332,.F.);
#246=ORIENTED_EDGE('',*,*,#352,.T.);
#247=CARTESIAN_POINT('',(-7.24409448818898,0.0,0.0));
#248=DIRECTION('',(0.0,1.0,0.0));
#249=DIRECTION('',(0.0,0.0,1.0));
#250=SURFACE_STYLE_FILL_AREA(#353);
#251=ORIENTED_EDGE('',*,*,#354,.T.);
#252=ORIENTED_EDGE('',*,*,#326,.F.);
#253=ORIENTED_EDGE('',*,*,#355,.T.);
#254=ORIENTED_EDGE('',*,*,#356,.F.);
#255=CARTESIAN_POINT('',(-2.67716535433071,-0.78740157480315,0.0));
#256=DIRECTION('',(-0.0,-0.0,-1.0));
#257=DIRECTION('',(-1.0,0.0,0.0));
#258=SURFACE_STYLE_FILL_AREA(#357);
#259=SURFACE_STYLE_FILL_AREA(#358);
#260=ORIENTED_EDGE('',*,*,#359,.T.);
#261=ORIENTED_EDGE('',*,*,#352,.F.);
#262=ORIENTED_EDGE('',*,*,#335,.F.);
#263=ORIENTED_EDGE('',*,*,#360,.T.);
#264=CARTESIAN_POINT('',(-7.24409448818898,-1.5748031496063,0.0));
#265=DIRECTION('',(-1.0,0.0,0.0));
#266=DIRECTION('',(0.0,0.0,1.0));
#267=SURFACE_STYLE_FILL_AREA(#361);
#268=ORIENTED_EDGE('',*,*,#337,.F.);
#269=ORIENTED_EDGE('',*,*,#362,.F.);
#270=ORIENTED_EDGE('',*,*,#338,.F.);
#271=ORIENTED_EDGE('',*,*,#325,.F.);
#272=CARTESIAN_POINT('',(-0.78740157480315,-0.78740157480315,0.0));
#273=DIRECTION('',(-0.0,-0.0,-1.0));
#274=DIRECTION('',(-1.0,0.0,0.0));
#275=SURFACE_STYLE_FILL_AREA(#363);
#276=ORIENTED_EDGE('',*,*,#364,.T.);
#277=ORIENTED_EDGE('',*,*,#360,.F.);
#278=ORIENTED_EDGE('',*,*,#334,.F.);
#279=ORIENTED_EDGE('',*,*,#342,.T.);
#280=CARTESIAN_POINT('',(0.0,-1.5748031496063,0.0));
#281=DIRECTION('',(9.65411325761005E-17,-1.0,0.0));
#282=DIRECTION('',(0.0,0.0,-1.0));
#283=SURFACE_STYLE_FILL_AREA(#365);
#284=ORIENTED_EDGE('',*,*,#366,.F.);
#285=ORIENTED_EDGE('',*,*,#367,.F.);
#286=ORIENTED_EDGE('',*,*,#368,.F.);
#287=ORIENTED_EDGE('',*,*,#331,.F.);
#288=CARTESIAN_POINT('',(-6.45669291338583,-0.78740157480315,0.0));
#289=DIRECTION('',(-0.0,-0.0,-1.0));
#290=DIRECTION('',(-1.0,0.0,0.0));
#291=SURFACE_STYLE_FILL_AREA(#369);
#292=ORIENTED_EDGE('',*,*,#362,.T.);
#293=ORIENTED_EDGE('',*,*,#339,.T.);
#294=ORIENTED_EDGE('',*,*,#370,.T.);
#295=ORIENTED_EDGE('',*,*,#356,.T.);
#296=ORIENTED_EDGE('',*,*,#349,.T.);
#297=ORIENTED_EDGE('',*,*,#347,.T.);
#298=ORIENTED_EDGE('',*,*,#367,.T.);
#299=ORIENTED_EDGE('',*,*,#371,.T.);
#300=ORIENTED_EDGE('',*,*,#341,.F.);
#301=ORIENTED_EDGE('',*,*,#351,.F.);
#302=ORIENTED_EDGE('',*,*,#359,.F.);
#303=ORIENTED_EDGE('',*,*,#364,.F.);
#304=CARTESIAN_POINT('',(-3.62204724409449,-0.787401574803149,0.236220472440945));
#305=DIRECTION('',(0.0,0.0,1.0));
#306=DIRECTION('',(1.0,0.0,0.0));
#307=SURFACE_STYLE_FILL_AREA(#372);
#308=ORIENTED_EDGE('',*,*,#354,.F.);
#309=ORIENTED_EDGE('',*,*,#370,.F.);
#310=ORIENTED_EDGE('',*,*,#355,.F.);
#311=ORIENTED_EDGE('',*,*,#327,.F.);
#312=CARTESIAN_POINT('',(-2.67716535433071,-0.78740157480315,0.0));
#313=DIRECTION('',(-0.0,-0.0,-1.0));
#314=DIRECTION('',(-1.0,0.0,0.0));
#315=SURFACE_STYLE_FILL_AREA(#373);
#316=ORIENTED_EDGE('',*,*,#366,.T.);
#317=ORIENTED_EDGE('',*,*,#330,.F.);
#318=ORIENTED_EDGE('',*,*,#368,.T.);
#319=ORIENTED_EDGE('',*,*,#371,.F.);
#320=CARTESIAN_POINT('',(-6.45669291338583,-0.78740157480315,0.0));
#321=DIRECTION('',(-0.0,-0.0,-1.0));
#322=DIRECTION('',(-1.0,0.0,0.0));
#323=FILL_AREA_STYLE('',(#374));
#324=EDGE_CURVE('',#375,#376,#377,.T.);
#325=EDGE_CURVE('',#376,#375,#378,.T.);
#326=EDGE_CURVE('',#379,#380,#381,.T.);
#327=EDGE_CURVE('',#380,#379,#382,.T.);
#328=EDGE_CURVE('',#383,#384,#385,.T.);
#329=EDGE_CURVE('',#384,#383,#386,.T.);
#330=EDGE_CURVE('',#387,#388,#389,.T.);
#331=EDGE_CURVE('',#388,#387,#390,.T.);
#332=EDGE_CURVE('',#391,#392,#393,.T.);
#333=EDGE_CURVE('',#392,#394,#395,.T.);
#334=EDGE_CURVE('',#394,#396,#397,.T.);
#335=EDGE_CURVE('',#396,#391,#398,.T.);
#336=FILL_AREA_STYLE('',(#399));
#337=EDGE_CURVE('',#400,#376,#401,.T.);
#338=EDGE_CURVE('',#375,#402,#403,.T.);
#339=EDGE_CURVE('',#400,#402,#404,.T.);
#340=FILL_AREA_STYLE('',(#405));
#341=EDGE_CURVE('',#406,#407,#408,.T.);
#342=EDGE_CURVE('',#394,#407,#409,.T.);
#343=EDGE_CURVE('',#392,#406,#410,.T.);
#344=FILL_AREA_STYLE('',(#411));
#345=EDGE_CURVE('',#412,#384,#413,.T.);
#346=EDGE_CURVE('',#383,#414,#415,.T.);
#347=EDGE_CURVE('',#412,#414,#416,.T.);
#348=FILL_AREA_STYLE('',(#417));
#349=EDGE_CURVE('',#414,#412,#418,.T.);
#350=FILL_AREA_STYLE('',(#419));
#351=EDGE_CURVE('',#420,#406,#421,.T.);
#352=EDGE_CURVE('',#391,#420,#422,.T.);
#353=FILL_AREA_STYLE('',(#423));
#354=EDGE_CURVE('',#424,#380,#425,.T.);
#355=EDGE_CURVE('',#379,#426,#427,.T.);
#356=EDGE_CURVE('',#424,#426,#428,.T.);
#357=FILL_AREA_STYLE('',(#429));
#358=FILL_AREA_STYLE('',(#430));
#359=EDGE_CURVE('',#431,#420,#432,.T.);
#360=EDGE_CURVE('',#396,#431,#433,.T.);
#361=FILL_AREA_STYLE('',(#434));
#362=EDGE_CURVE('',#402,#400,#435,.T.);
#363=FILL_AREA_STYLE('',(#436));
#364=EDGE_CURVE('',#407,#431,#437,.T.);
#365=FILL_AREA_STYLE('',(#438));
#366=EDGE_CURVE('',#439,#388,#440,.T.);
#367=EDGE_CURVE('',#441,#439,#442,.T.);
#368=EDGE_CURVE('',#387,#441,#443,.T.);
#369=FILL_AREA_STYLE('',(#444));
#370=EDGE_CURVE('',#426,#424,#445,.T.);
#371=EDGE_CURVE('',#439,#441,#446,.T.);
#372=FILL_AREA_STYLE('',(#447));
#373=FILL_AREA_STYLE('',(#448));
#374=FILL_AREA_STYLE_COLOUR('',#449);
#375=VERTEX_POINT('',#450);
#376=VERTEX_POINT('',#451);
#377=CIRCLE('',#452,0.275590551181102);
#378=CIRCLE('',#453,0.275590551181102);
#379=VERTEX_POINT('',#454);
#380=VERTEX_POINT('',#455);
#381=CIRCLE('',#456,0.275590551181102);
#382=CIRCLE('',#457,0.275590551181102);
#383=VERTEX_POINT('',#458);
#384=VERTEX_POINT('',#459);
#385=CIRCLE('',#460,0.275590551181102);
#386=CIRCLE('',#461,0.275590551181102);
#387=VERTEX_POINT('',#462);
#388=VERTEX_POINT('',#463);
#389=CIRCLE('',#464,0.275590551181102);
#390=CIRCLE('',#465,0.275590551181102);
#391=VERTEX_POINT('',#466);
#392=VERTEX_POINT('',#467);
#393=LINE('',#468,#469);
#394=VERTEX_POINT('',#470);
#395=LINE('',#471,#472);
#396=VERTEX_POINT('',#473);
#397=LINE('',#474,#475);
#398=LINE('',#476,#477);
#399=FILL_AREA_STYLE_COLOUR('',#478);
#400=VERTEX_POINT('',#479);
#401=LINE('',#480,#481);
#402=VERTEX_POINT('',#482);
#403=LINE('',#483,#484);
#404=CIRCLE('',#485,0.275590551181102);
#405=FILL_AREA_STYLE_COLOUR('',#486);
#406=VERTEX_POINT('',#487);
#407=VERTEX_POINT('',#488);
#408=LINE('',#489,#490);
#409=LINE('',#491,#492);
#410=LINE('',#493,#494);
#411=FILL_AREA_STYLE_COLOUR('',#495);
#412=VERTEX_POINT('',#496);
#413=LINE('',#497,#498);
#414=VERTEX_POINT('',#499);
#415=LINE('',#500,#501);
#416=CIRCLE('',#502,0.275590551181102);
#417=FILL_AREA_STYLE_COLOUR('',#503);
#418=CIRCLE('',#504,0.275590551181102);
#419=FILL_AREA_STYLE_COLOUR('',#505);
#420=VERTEX_POINT('',#506);
#421=LINE('',#507,#508);
#422=LINE('',#509,#510);
#423=FILL_AREA_STYLE_COLOUR('',#511);
#424=VERTEX_POINT('',#512);
#425=LINE('',#513,#514);
#426=VERTEX_POINT('',#515);
#427=LINE('',#516,#517);
#428=CIRCLE('',#518,0.275590551181102);
#429=FILL_AREA_STYLE_COLOUR('',#519);
#430=FILL_AREA_STYLE_COLOUR('',#520);
#431=VERTEX_POINT('',#521);
#432=LINE('',#522,#523);
#433=LINE('',#524,#525);
#434=FILL_AREA_STYLE_COLOUR('',#526);
#435=CIRCLE('',#527,0.275590551181102);
#436=FILL_AREA_STYLE_COLOUR('',#528);
#437=LINE('',#529,#530);
#438=FILL_AREA_STYLE_COLOUR('',#531);
#439=VERTEX_POINT('',#532);
#440=LINE('',#533,#534);
#441=VERTEX_POINT('',#535);
#442=CIRCLE('',#536,0.275590551181102);
#443=LINE('',#537,#538);
#444=FILL_AREA_STYLE_COLOUR('',#539);
#445=CIRCLE('',#540,0.275590551181102);
#446=CIRCLE('',#541,0.275590551181102);
#447=FILL_AREA_STYLE_COLOUR('',#542);
#448=FILL_AREA_STYLE_COLOUR('',#543);
#449=COLOUR_RGB('',0.0,1.0,0.0);
#450=CARTESIAN_POINT('',(-0.511811023622047,-0.78740157480315,0.0));
#451=CARTESIAN_POINT('',(-1.06299212598425,-0.78740157480315,0.0));
#452=AXIS2_PLACEMENT_3D('',#544,#545,#546);
#453=AXIS2_PLACEMENT_3D('',#547,#548,#549);
#454=CARTESIAN_POINT('',(-2.40157480314961,-0.78740157480315,0.0));
#455=CARTESIAN_POINT('',(-2.95275590551181,-0.78740157480315,0.0));
#456=AXIS2_PLACEMENT_3D('',#550,#551,#552);
#457=AXIS2_PLACEMENT_3D('',#553,#554,#555);
#458=CARTESIAN_POINT('',(-4.29133858267717,-0.78740157480315,0.0));
#459=CARTESIAN_POINT('',(-4.84251968503937,-0.78740157480315,0.0));
#460=AXIS2_PLACEMENT_3D('',#556,#557,#558);
#461=AXIS2_PLACEMENT_3D('',#559,#560,#561);
#462=CARTESIAN_POINT('',(-6.18110236220473,-0.78740157480315,0.0));
#463=CARTESIAN_POINT('',(-6.73228346456693,-0.78740157480315,0.0));
#464=AXIS2_PLACEMENT_3D('',#562,#563,#564);
#465=AXIS2_PLACEMENT_3D('',#565,#566,#567);
#466=CARTESIAN_POINT('',(-7.24409448818898,0.0,0.0));
#467=CARTESIAN_POINT('',(0.0,0.0,0.0));
#468=CARTESIAN_POINT('',(-7.24409448818898,0.0,0.0));
#469=VECTOR('',#568,0.393700787401575);
#470=CARTESIAN_POINT('',(0.0,-1.5748031496063,0.0));
#471=CARTESIAN_POINT('',(0.0,0.0,0.0));
#472=VECTOR('',#569,0.393700787401575);
#473=CARTESIAN_POINT('',(-7.24409448818898,-1.5748031496063,0.0));
#474=CARTESIAN_POINT('',(0.0,-1.5748031496063,0.0));
#475=VECTOR('',#570,0.393700787401575);
#476=CARTESIAN_POINT('',(-7.24409448818898,-1.5748031496063,0.0));
#477=VECTOR('',#571,0.393700787401575);
#478=COLOUR_RGB('',0.0,1.0,0.0);
#479=CARTESIAN_POINT('',(-1.06299212598425,-0.78740157480315,0.236220472440945));
#480=CARTESIAN_POINT('',(-1.06299212598425,-0.78740157480315,0.0));
#481=VECTOR('',#572,1.0);
#482=CARTESIAN_POINT('',(-0.511811023622047,-0.78740157480315,0.236220472440945));
#483=CARTESIAN_POINT('',(-0.511811023622047,-0.78740157480315,0.0));
#484=VECTOR('',#573,1.0);
#485=AXIS2_PLACEMENT_3D('',#574,#575,#576);
#486=COLOUR_RGB('',0.0,1.0,0.0);
#487=CARTESIAN_POINT('',(0.0,0.0,0.236220472440945));
#488=CARTESIAN_POINT('',(0.0,-1.5748031496063,0.236220472440945));
#489=CARTESIAN_POINT('',(0.0,0.0,0.236220472440945));
#490=VECTOR('',#577,0.393700787401575);
#491=CARTESIAN_POINT('',(0.0,-1.5748031496063,0.0));
#492=VECTOR('',#578,0.393700787401575);
#493=CARTESIAN_POINT('',(0.0,0.0,0.0));
#494=VECTOR('',#579,0.393700787401575);
#495=COLOUR_RGB('',0.0,1.0,0.0);
#496=CARTESIAN_POINT('',(-4.84251968503937,-0.78740157480315,0.236220472440945));
#497=CARTESIAN_POINT('',(-4.84251968503937,-0.78740157480315,0.0));
#498=VECTOR('',#580,1.0);
#499=CARTESIAN_POINT('',(-4.29133858267717,-0.78740157480315,0.236220472440945));
#500=CARTESIAN_POINT('',(-4.29133858267717,-0.78740157480315,0.0));
#501=VECTOR('',#581,1.0);
#502=AXIS2_PLACEMENT_3D('',#582,#583,#584);
#503=COLOUR_RGB('',0.0,1.0,0.0);
#504=AXIS2_PLACEMENT_3D('',#585,#586,#587);
#505=COLOUR_RGB('',0.0,1.0,0.0);
#506=CARTESIAN_POINT('',(-7.24409448818898,0.0,0.236220472440945));
#507=CARTESIAN_POINT('',(-7.24409448818898,0.0,0.236220472440945));
#508=VECTOR('',#588,0.393700787401575);
#509=CARTESIAN_POINT('',(-7.24409448818898,0.0,0.0));
#510=VECTOR('',#589,0.393700787401575);
#511=COLOUR_RGB('',0.0,1.0,0.0);
#512=CARTESIAN_POINT('',(-2.95275590551181,-0.78740157480315,0.236220472440945));
#513=CARTESIAN_POINT('',(-2.95275590551181,-0.78740157480315,0.0));
#514=VECTOR('',#590,1.0);
#515=CARTESIAN_POINT('',(-2.40157480314961,-0.78740157480315,0.236220472440945));
#516=CARTESIAN_POINT('',(-2.40157480314961,-0.78740157480315,0.0));
#517=VECTOR('',#591,1.0);
#518=AXIS2_PLACEMENT_3D('',#592,#593,#594);
#519=COLOUR_RGB('',0.0,1.0,0.0);
#520=COLOUR_RGB('',0.0,1.0,0.0);
#521=CARTESIAN_POINT('',(-7.24409448818898,-1.5748031496063,0.236220472440945));
#522=CARTESIAN_POINT('',(-7.24409448818898,-1.5748031496063,0.236220472440945));
#523=VECTOR('',#595,0.393700787401575);
#524=CARTESIAN_POINT('',(-7.24409448818898,-1.5748031496063,0.0));
#525=VECTOR('',#596,0.393700787401575);
#526=COLOUR_RGB('',0.0,1.0,0.0);
#527=AXIS2_PLACEMENT_3D('',#597,#598,#599);
#528=COLOUR_RGB('',0.0,1.0,0.0);
#529=CARTESIAN_POINT('',(0.0,-1.5748031496063,0.236220472440945));
#530=VECTOR('',#600,0.393700787401575);
#531=COLOUR_RGB('',0.0,1.0,0.0);
#532=CARTESIAN_POINT('',(-6.73228346456693,-0.78740157480315,0.236220472440945));
#533=CARTESIAN_POINT('',(-6.73228346456693,-0.78740157480315,0.0));
#534=VECTOR('',#601,1.0);
#535=CARTESIAN_POINT('',(-6.18110236220473,-0.78740157480315,0.236220472440945));
#536=AXIS2_PLACEMENT_3D('',#602,#603,#604);
#537=CARTESIAN_POINT('',(-6.18110236220472,-0.78740157480315,0.0));
#538=VECTOR('',#605,1.0);
#539=COLOUR_RGB('',0.0,1.0,0.0);
#540=AXIS2_PLACEMENT_3D('',#606,#607,#608);
#541=AXIS2_PLACEMENT_3D('',#609,#610,#611);
#542=COLOUR_RGB('',0.0,1.0,0.0);
#543=COLOUR_RGB('',0.0,1.0,0.0);
#544=CARTESIAN_POINT('',(-0.78740157480315,-0.78740157480315,0.0));
#545=DIRECTION('',(0.0,0.0,1.0));
#546=DIRECTION('',(-1.0,0.0,0.0));
#547=CARTESIAN_POINT('',(-0.78740157480315,-0.78740157480315,0.0));
#548=DIRECTION('',(0.0,0.0,1.0));
#549=DIRECTION('',(-1.0,0.0,0.0));
#550=CARTESIAN_POINT('',(-2.67716535433071,-0.78740157480315,0.0));
#551=DIRECTION('',(0.0,0.0,1.0));
#552=DIRECTION('',(-1.0,0.0,0.0));
#553=CARTESIAN_POINT('',(-2.67716535433071,-0.78740157480315,0.0));
#554=DIRECTION('',(0.0,0.0,1.0));
#555=DIRECTION('',(-1.0,0.0,0.0));
#556=CARTESIAN_POINT('',(-4.56692913385827,-0.78740157480315,0.0));
#557=DIRECTION('',(0.0,0.0,1.0));
#558=DIRECTION('',(-1.0,0.0,0.0));
#559=CARTESIAN_POINT('',(-4.56692913385827,-0.78740157480315,0.0));
#560=DIRECTION('',(0.0,0.0,1.0));
#561=DIRECTION('',(-1.0,0.0,0.0));
#562=CARTESIAN_POINT('',(-6.45669291338583,-0.78740157480315,0.0));
#563=DIRECTION('',(0.0,0.0,1.0));
#564=DIRECTION('',(-1.0,0.0,0.0));
#565=CARTESIAN_POINT('',(-6.45669291338583,-0.78740157480315,0.0));
#566=DIRECTION('',(0.0,0.0,1.0));
#567=DIRECTION('',(-1.0,0.0,0.0));
#568=DIRECTION('',(1.0,0.0,0.0));
#569=DIRECTION('',(0.0,-1.0,0.0));
#570=DIRECTION('',(-1.0,-9.65411325761006E-17,0.0));
#571=DIRECTION('',(0.0,1.0,0.0));
#572=DIRECTION('',(0.0,-0.0,-1.0));
#573=DIRECTION('',(0.0,0.0,1.0));
#574=CARTESIAN_POINT('',(-0.78740157480315,-0.78740157480315,0.236220472440945));
#575=DIRECTION('',(0.0,0.0,-1.0));
#576=DIRECTION('',(-1.0,0.0,0.0));
#577=DIRECTION('',(0.0,-1.0,0.0));
#578=DIRECTION('',(0.0,0.0,1.0));
#579=DIRECTION('',(0.0,0.0,1.0));
#580=DIRECTION('',(0.0,-0.0,-1.0));
#581=DIRECTION('',(0.0,0.0,1.0));
#582=CARTESIAN_POINT('',(-4.56692913385827,-0.78740157480315,0.236220472440945));
#583=DIRECTION('',(0.0,0.0,-1.0));
#584=DIRECTION('',(-1.0,0.0,0.0));
#585=CARTESIAN_POINT('',(-4.56692913385827,-0.78740157480315,0.236220472440945));
#586=DIRECTION('',(0.0,0.0,-1.0));
#587=DIRECTION('',(-1.0,0.0,0.0));
#588=DIRECTION('',(1.0,0.0,0.0));
#589=DIRECTION('',(0.0,0.0,1.0));
#590=DIRECTION('',(0.0,-0.0,-1.0));
#591=DIRECTION('',(0.0,0.0,1.0));
#592=CARTESIAN_POINT('',(-2.67716535433071,-0.78740157480315,0.236220472440945));
#593=DIRECTION('',(0.0,0.0,-1.0));
#594=DIRECTION('',(-1.0,0.0,0.0));
#595=DIRECTION('',(0.0,1.0,0.0));
#596=DIRECTION('',(0.0,0.0,1.0));
#597=CARTESIAN_POINT('',(-0.78740157480315,-0.78740157480315,0.236220472440945));
#598=DIRECTION('',(0.0,0.0,-1.0));
#599=DIRECTION('',(-1.0,0.0,0.0));
#600=DIRECTION('',(-1.0,-9.65411325761006E-17,0.0));
#601=DIRECTION('',(0.0,-0.0,-1.0));
#602=CARTESIAN_POINT('',(-6.45669291338583,-0.78740157480315,0.236220472440945));
#603=DIRECTION('',(0.0,0.0,-1.0));
#604=DIRECTION('',(-1.0,0.0,0.0));
#605=DIRECTION('',(0.0,0.0,1.0));
#606=CARTESIAN_POINT('',(-2.67716535433071,-0.78740157480315,0.236220472440945));
#607=DIRECTION('',(0.0,0.0,-1.0));
#608=DIRECTION('',(-1.0,0.0,0.0));
#609=CARTESIAN_POINT('',(-6.45669291338583,-0.78740157480315,0.236220472440945));
#610=DIRECTION('',(0.0,0.0,-1.0));
#611=DIRECTION('',(-1.0,0.0,0.0));
ENDSEC;
END-ISO-10303-21;
