ISO-10303-21;
HEADER;
FILE_DESCRIPTION(('TurboCAD Mac Pro'),'Build 980');
FILE_NAME('P1068.stp','  ',(''),(''),'ACIS Interop','IMSI','TurboCAD Mac Pro BY IMSI, INCORPORATED');
FILE_SCHEMA(('automotive_design'));
ENDSEC;
DATA;
#1=MECHANICAL_DESIGN_GEOMETRIC_PRESENTATION_REPRESENTATION(' ',(#10,#11,#12,#13,#14,#15,#16,#17,#18,#19,#20,#21,#22,#23,#24,#25,#26),#6);
#2=PRODUCT_DEFINITION_CONTEXT('',#27,'design');
#3=APPLICATION_PROTOCOL_DEFINITION('INTERNATIONAL STANDARD','automotive_design',1994,#27);
#4=PRODUCT_CATEGORY_RELATIONSHIP('NONE','NONE',#28,#29);
#5=SHAPE_DEFINITION_REPRESENTATION(#30,#31);
#6= (GEOMETRIC_REPRESENTATION_CONTEXT(3)GLOBAL_UNCERTAINTY_ASSIGNED_CONTEXT((#34))GLOBAL_UNIT_ASSIGNED_CONTEXT((#36,#37,#38))REPRESENTATION_CONTEXT('NONE','WORKSPACE'));
#10=STYLED_ITEM('',(#40),#41);
#11=STYLED_ITEM('',(#42),#43);
#12=STYLED_ITEM('',(#44),#45);
#13=STYLED_ITEM('',(#46),#47);
#14=STYLED_ITEM('',(#48),#49);
#15=STYLED_ITEM('',(#50),#51);
#16=STYLED_ITEM('',(#52),#53);
#17=STYLED_ITEM('',(#54),#55);
#18=STYLED_ITEM('',(#56),#57);
#19=STYLED_ITEM('',(#58),#59);
#20=STYLED_ITEM('',(#60),#61);
#21=STYLED_ITEM('',(#62),#63);
#22=STYLED_ITEM('',(#64),#65);
#23=STYLED_ITEM('',(#66),#67);
#24=STYLED_ITEM('',(#68),#69);
#25=STYLED_ITEM('',(#70),#71);
#26=STYLED_ITEM('',(#72),#73);
#27=APPLICATION_CONTEXT(' ');
#28=PRODUCT_CATEGORY('part','NONE');
#29=PRODUCT_RELATED_PRODUCT_CATEGORY('detail',' ',(#74));
#30=PRODUCT_DEFINITION_SHAPE('NONE','NONE',#75);
#31=ADVANCED_BREP_SHAPE_REPRESENTATION('1',(#59,#76),#6);
#34=UNCERTAINTY_MEASURE_WITH_UNIT(LENGTH_MEASURE(1.0E-06),#36,'','');
#36= (CONVERSION_BASED_UNIT('INCH',#79)LENGTH_UNIT()NAMED_UNIT(#82));
#37= (NAMED_UNIT(#84)PLANE_ANGLE_UNIT()SI_UNIT($,.RADIAN.));
#38= (NAMED_UNIT(#84)SOLID_ANGLE_UNIT()SI_UNIT($,.STERADIAN.));
#40=PRESENTATION_STYLE_ASSIGNMENT((#90));
#41=ADVANCED_FACE('',(#91),#92,.F.);
#42=PRESENTATION_STYLE_ASSIGNMENT((#93));
#43=ADVANCED_FACE('',(#94),#95,.F.);
#44=PRESENTATION_STYLE_ASSIGNMENT((#96));
#45=ADVANCED_FACE('',(#97,#98),#99,.T.);
#46=PRESENTATION_STYLE_ASSIGNMENT((#100));
#47=ADVANCED_FACE('',(#101),#102,.F.);
#48=PRESENTATION_STYLE_ASSIGNMENT((#103));
#49=ADVANCED_FACE('',(#104),#105,.F.);
#50=PRESENTATION_STYLE_ASSIGNMENT((#106));
#51=ADVANCED_FACE('',(#107),#108,.F.);
#52=PRESENTATION_STYLE_ASSIGNMENT((#109));
#53=ADVANCED_FACE('',(#110),#111,.F.);
#54=PRESENTATION_STYLE_ASSIGNMENT((#112));
#55=ADVANCED_FACE('',(#113,#114),#115,.T.);
#56=PRESENTATION_STYLE_ASSIGNMENT((#116));
#57=ADVANCED_FACE('',(#117),#118,.T.);
#58=PRESENTATION_STYLE_ASSIGNMENT((#119));
#59=MANIFOLD_SOLID_BREP('1',#120);
#60=PRESENTATION_STYLE_ASSIGNMENT((#121));
#61=ADVANCED_FACE('',(#122,#123),#124,.T.);
#62=PRESENTATION_STYLE_ASSIGNMENT((#125));
#63=ADVANCED_FACE('',(#126),#127,.F.);
#64=PRESENTATION_STYLE_ASSIGNMENT((#128));
#65=ADVANCED_FACE('',(#129),#130,.T.);
#66=PRESENTATION_STYLE_ASSIGNMENT((#131));
#67=ADVANCED_FACE('',(#132),#133,.T.);
#68=PRESENTATION_STYLE_ASSIGNMENT((#134));
#69=ADVANCED_FACE('',(#135,#136),#137,.T.);
#70=PRESENTATION_STYLE_ASSIGNMENT((#138));
#71=ADVANCED_FACE('',(#139),#140,.T.);
#72=PRESENTATION_STYLE_ASSIGNMENT((#141));
#73=ADVANCED_FACE('',(#142),#143,.T.);
#74=PRODUCT('1','1','PART-1-DESC',(#144));
#75=PRODUCT_DEFINITION('NONE','NONE',#145,#2);
#76=AXIS2_PLACEMENT_3D('',#146,#147,#148);
#79=LENGTH_MEASURE_WITH_UNIT(LENGTH_MEASURE(25.4),#149);
#82=DIMENSIONAL_EXPONENTS(1.0,0.0,0.0,0.0,0.0,0.0,0.0);
#84=DIMENSIONAL_EXPONENTS(0.0,0.0,0.0,0.0,0.0,0.0,0.0);
#90=SURFACE_STYLE_USAGE(.BOTH.,#150);
#91=FACE_OUTER_BOUND('',#151,.T.);
#92=CYLINDRICAL_SURFACE('',#152,0.275590551181102);
#93=SURFACE_STYLE_USAGE(.BOTH.,#153);
#94=FACE_OUTER_BOUND('',#154,.T.);
#95=PLANE('',#155);
#96=SURFACE_STYLE_USAGE(.BOTH.,#156);
#97=FACE_BOUND('',#157,.T.);
#98=FACE_OUTER_BOUND('',#158,.T.);
#99=PLANE('',#159);
#100=SURFACE_STYLE_USAGE(.BOTH.,#160);
#101=FACE_OUTER_BOUND('',#161,.T.);
#102=CYLINDRICAL_SURFACE('',#162,0.275590551181102);
#103=SURFACE_STYLE_USAGE(.BOTH.,#163);
#104=FACE_OUTER_BOUND('',#164,.T.);
#105=CYLINDRICAL_SURFACE('',#165,0.078740157480315);
#106=SURFACE_STYLE_USAGE(.BOTH.,#166);
#107=FACE_OUTER_BOUND('',#167,.T.);
#108=CYLINDRICAL_SURFACE('',#168,0.275590551181102);
#109=SURFACE_STYLE_USAGE(.BOTH.,#169);
#110=FACE_OUTER_BOUND('',#170,.T.);
#111=CYLINDRICAL_SURFACE('',#171,0.078740157480315);
#112=SURFACE_STYLE_USAGE(.BOTH.,#172);
#113=FACE_BOUND('',#173,.T.);
#114=FACE_OUTER_BOUND('',#174,.T.);
#115=PLANE('',#175);
#116=SURFACE_STYLE_USAGE(.BOTH.,#176);
#117=FACE_OUTER_BOUND('',#177,.T.);
#118=PLANE('',#178);
#119=SURFACE_STYLE_USAGE(.BOTH.,#179);
#120=CLOSED_SHELL('',(#73,#49,#41,#51,#63,#47,#53,#55,#65,#57,#69,#45,#71,#61,#67,#43));
#121=SURFACE_STYLE_USAGE(.BOTH.,#180);
#122=FACE_BOUND('',#181,.T.);
#123=FACE_OUTER_BOUND('',#182,.T.);
#124=PLANE('',#183);
#125=SURFACE_STYLE_USAGE(.BOTH.,#184);
#126=FACE_OUTER_BOUND('',#185,.T.);
#127=CYLINDRICAL_SURFACE('',#186,0.275590551181102);
#128=SURFACE_STYLE_USAGE(.BOTH.,#187);
#129=FACE_OUTER_BOUND('',#188,.T.);
#130=CYLINDRICAL_SURFACE('',#189,0.31496062992126);
#131=SURFACE_STYLE_USAGE(.BOTH.,#190);
#132=FACE_OUTER_BOUND('',#191,.T.);
#133=PLANE('',#192);
#134=SURFACE_STYLE_USAGE(.BOTH.,#193);
#135=FACE_BOUND('',#194,.T.);
#136=FACE_OUTER_BOUND('',#195,.T.);
#137=PLANE('',#196);
#138=SURFACE_STYLE_USAGE(.BOTH.,#197);
#139=FACE_OUTER_BOUND('',#198,.T.);
#140=PLANE('',#199);
#141=SURFACE_STYLE_USAGE(.BOTH.,#200);
#142=FACE_OUTER_BOUND('',#201,.T.);
#143=CYLINDRICAL_SURFACE('',#202,0.31496062992126);
#144=PRODUCT_CONTEXT('',#27,'mechanical');
#145=PRODUCT_DEFINITION_FORMATION_WITH_SPECIFIED_SOURCE(' ','NONE',#74,.NOT_KNOWN.);
#146=CARTESIAN_POINT('',(0.0,0.0,0.0));
#147=DIRECTION('',(0.0,0.0,1.0));
#148=DIRECTION('',(1.0,0.0,0.0));
#149= (NAMED_UNIT(#82)LENGTH_UNIT()SI_UNIT(.MILLI.,.METRE.));
#150=SURFACE_SIDE_STYLE('',(#204));
#151=EDGE_LOOP('',(#205,#206,#207,#208));
#152=AXIS2_PLACEMENT_3D('',#209,#210,#211);
#153=SURFACE_SIDE_STYLE('',(#212));
#154=EDGE_LOOP('',(#213,#214,#215,#216,#217,#218,#219,#220,#221,#222));
#155=AXIS2_PLACEMENT_3D('',#223,#224,#225);
#156=SURFACE_SIDE_STYLE('',(#226));
#157=EDGE_LOOP('',(#227,#228));
#158=EDGE_LOOP('',(#229,#230,#231,#232));
#159=AXIS2_PLACEMENT_3D('',#233,#234,#235);
#160=SURFACE_SIDE_STYLE('',(#236));
#161=EDGE_LOOP('',(#237,#238,#239,#240));
#162=AXIS2_PLACEMENT_3D('',#241,#242,#243);
#163=SURFACE_SIDE_STYLE('',(#244));
#164=EDGE_LOOP('',(#245,#246,#247,#248));
#165=AXIS2_PLACEMENT_3D('',#249,#250,#251);
#166=SURFACE_SIDE_STYLE('',(#252));
#167=EDGE_LOOP('',(#253,#254,#255,#256));
#168=AXIS2_PLACEMENT_3D('',#257,#258,#259);
#169=SURFACE_SIDE_STYLE('',(#260));
#170=EDGE_LOOP('',(#261,#262,#263,#264));
#171=AXIS2_PLACEMENT_3D('',#265,#266,#267);
#172=SURFACE_SIDE_STYLE('',(#268));
#173=EDGE_LOOP('',(#269,#270));
#174=EDGE_LOOP('',(#271,#272,#273,#274));
#175=AXIS2_PLACEMENT_3D('',#275,#276,#277);
#176=SURFACE_SIDE_STYLE('',(#278));
#177=EDGE_LOOP('',(#279,#280,#281,#282,#283,#284,#285,#286,#287,#288));
#178=AXIS2_PLACEMENT_3D('',#289,#290,#291);
#179=SURFACE_SIDE_STYLE('',(#292));
#180=SURFACE_SIDE_STYLE('',(#293));
#181=EDGE_LOOP('',(#294,#295));
#182=EDGE_LOOP('',(#296,#297,#298,#299));
#183=AXIS2_PLACEMENT_3D('',#300,#301,#302);
#184=SURFACE_SIDE_STYLE('',(#303));
#185=EDGE_LOOP('',(#304,#305,#306,#307));
#186=AXIS2_PLACEMENT_3D('',#308,#309,#310);
#187=SURFACE_SIDE_STYLE('',(#311));
#188=EDGE_LOOP('',(#312,#313,#314,#315));
#189=AXIS2_PLACEMENT_3D('',#316,#317,#318);
#190=SURFACE_SIDE_STYLE('',(#319));
#191=EDGE_LOOP('',(#320,#321,#322,#323));
#192=AXIS2_PLACEMENT_3D('',#324,#325,#326);
#193=SURFACE_SIDE_STYLE('',(#327));
#194=EDGE_LOOP('',(#328,#329));
#195=EDGE_LOOP('',(#330,#331,#332,#333));
#196=AXIS2_PLACEMENT_3D('',#334,#335,#336);
#197=SURFACE_SIDE_STYLE('',(#337));
#198=EDGE_LOOP('',(#338,#339,#340,#341));
#199=AXIS2_PLACEMENT_3D('',#342,#343,#344);
#200=SURFACE_SIDE_STYLE('',(#345));
#201=EDGE_LOOP('',(#346,#347,#348,#349));
#202=AXIS2_PLACEMENT_3D('',#350,#351,#352);
#204=SURFACE_STYLE_FILL_AREA(#353);
#205=ORIENTED_EDGE('',*,*,#354,.F.);
#206=ORIENTED_EDGE('',*,*,#355,.F.);
#207=ORIENTED_EDGE('',*,*,#356,.F.);
#208=ORIENTED_EDGE('',*,*,#357,.F.);
#209=CARTESIAN_POINT('',(0.807086614173228,2.24409448818898,0.807086614173228));
#210=DIRECTION('',(-0.0,1.0,-0.0));
#211=DIRECTION('',(-1.0,0.0,0.0));
#212=SURFACE_STYLE_FILL_AREA(#358);
#213=ORIENTED_EDGE('',*,*,#359,.F.);
#214=ORIENTED_EDGE('',*,*,#360,.T.);
#215=ORIENTED_EDGE('',*,*,#361,.T.);
#216=ORIENTED_EDGE('',*,*,#362,.T.);
#217=ORIENTED_EDGE('',*,*,#363,.F.);
#218=ORIENTED_EDGE('',*,*,#364,.F.);
#219=ORIENTED_EDGE('',*,*,#365,.T.);
#220=ORIENTED_EDGE('',*,*,#366,.T.);
#221=ORIENTED_EDGE('',*,*,#367,.T.);
#222=ORIENTED_EDGE('',*,*,#368,.F.);
#223=CARTESIAN_POINT('',(0.448537682789651,1.48059617547806,0.0));
#224=DIRECTION('',(0.0,0.0,1.0));
#225=DIRECTION('',(1.0,0.0,0.0));
#226=SURFACE_STYLE_FILL_AREA(#369);
#227=ORIENTED_EDGE('',*,*,#370,.T.);
#228=ORIENTED_EDGE('',*,*,#357,.T.);
#229=ORIENTED_EDGE('',*,*,#371,.F.);
#230=ORIENTED_EDGE('',*,*,#372,.T.);
#231=ORIENTED_EDGE('',*,*,#373,.F.);
#232=ORIENTED_EDGE('',*,*,#360,.F.);
#233=CARTESIAN_POINT('',(0.0,2.24409448818898,0.0));
#234=DIRECTION('',(0.0,1.0,0.0));
#235=DIRECTION('',(0.0,0.0,1.0));
#236=SURFACE_STYLE_FILL_AREA(#374);
#237=ORIENTED_EDGE('',*,*,#354,.T.);
#238=ORIENTED_EDGE('',*,*,#370,.F.);
#239=ORIENTED_EDGE('',*,*,#356,.T.);
#240=ORIENTED_EDGE('',*,*,#375,.F.);
#241=CARTESIAN_POINT('',(0.807086614173228,2.24409448818898,0.807086614173228));
#242=DIRECTION('',(-0.0,1.0,-0.0));
#243=DIRECTION('',(-1.0,0.0,0.0));
#244=SURFACE_STYLE_FILL_AREA(#376);
#245=ORIENTED_EDGE('',*,*,#377,.F.);
#246=ORIENTED_EDGE('',*,*,#363,.T.);
#247=ORIENTED_EDGE('',*,*,#378,.T.);
#248=ORIENTED_EDGE('',*,*,#379,.T.);
#249=CARTESIAN_POINT('',(0.31496062992126,1.92913385826772,0.0));
#250=DIRECTION('',(-0.0,-0.0,-1.0));
#251=DIRECTION('',(-0.707106781186546,0.707106781186549,0.0));
#252=SURFACE_STYLE_FILL_AREA(#380);
#253=ORIENTED_EDGE('',*,*,#381,.F.);
#254=ORIENTED_EDGE('',*,*,#382,.F.);
#255=ORIENTED_EDGE('',*,*,#383,.F.);
#256=ORIENTED_EDGE('',*,*,#384,.F.);
#257=CARTESIAN_POINT('',(0.0,0.807086614173228,0.807086614173228));
#258=DIRECTION('',(-1.0,-0.0,-0.0));
#259=DIRECTION('',(0.0,0.0,-1.0));
#260=SURFACE_STYLE_FILL_AREA(#385);
#261=ORIENTED_EDGE('',*,*,#377,.T.);
#262=ORIENTED_EDGE('',*,*,#386,.T.);
#263=ORIENTED_EDGE('',*,*,#387,.T.);
#264=ORIENTED_EDGE('',*,*,#364,.T.);
#265=CARTESIAN_POINT('',(0.31496062992126,1.92913385826772,0.0));
#266=DIRECTION('',(-0.0,-0.0,-1.0));
#267=DIRECTION('',(-0.707106781186546,0.707106781186549,0.0));
#268=SURFACE_STYLE_FILL_AREA(#388);
#269=ORIENTED_EDGE('',*,*,#355,.T.);
#270=ORIENTED_EDGE('',*,*,#375,.T.);
#271=ORIENTED_EDGE('',*,*,#378,.F.);
#272=ORIENTED_EDGE('',*,*,#362,.F.);
#273=ORIENTED_EDGE('',*,*,#389,.T.);
#274=ORIENTED_EDGE('',*,*,#390,.T.);
#275=CARTESIAN_POINT('',(1.61417322834646,2.00787401574803,0.0));
#276=DIRECTION('',(0.0,-1.0,0.0));
#277=DIRECTION('',(0.0,0.0,-1.0));
#278=SURFACE_STYLE_FILL_AREA(#391);
#279=ORIENTED_EDGE('',*,*,#392,.F.);
#280=ORIENTED_EDGE('',*,*,#393,.F.);
#281=ORIENTED_EDGE('',*,*,#394,.F.);
#282=ORIENTED_EDGE('',*,*,#395,.F.);
#283=ORIENTED_EDGE('',*,*,#386,.F.);
#284=ORIENTED_EDGE('',*,*,#379,.F.);
#285=ORIENTED_EDGE('',*,*,#390,.F.);
#286=ORIENTED_EDGE('',*,*,#396,.F.);
#287=ORIENTED_EDGE('',*,*,#372,.F.);
#288=ORIENTED_EDGE('',*,*,#397,.F.);
#289=CARTESIAN_POINT('',(0.448537682789651,1.48059617547807,1.61417322834646));
#290=DIRECTION('',(0.0,0.0,1.0));
#291=DIRECTION('',(1.0,0.0,0.0));
#292=SURFACE_STYLE_FILL_AREA(#398);
#293=SURFACE_STYLE_FILL_AREA(#399);
#294=ORIENTED_EDGE('',*,*,#382,.T.);
#295=ORIENTED_EDGE('',*,*,#400,.T.);
#296=ORIENTED_EDGE('',*,*,#387,.F.);
#297=ORIENTED_EDGE('',*,*,#395,.T.);
#298=ORIENTED_EDGE('',*,*,#401,.F.);
#299=ORIENTED_EDGE('',*,*,#365,.F.);
#300=CARTESIAN_POINT('',(0.236220472440945,2.00787401574803,0.0));
#301=DIRECTION('',(1.0,0.0,0.0));
#302=DIRECTION('',(0.0,0.0,-1.0));
#303=SURFACE_STYLE_FILL_AREA(#402);
#304=ORIENTED_EDGE('',*,*,#381,.T.);
#305=ORIENTED_EDGE('',*,*,#403,.F.);
#306=ORIENTED_EDGE('',*,*,#383,.T.);
#307=ORIENTED_EDGE('',*,*,#400,.F.);
#308=CARTESIAN_POINT('',(0.0,0.807086614173228,0.807086614173228));
#309=DIRECTION('',(-1.0,-0.0,-0.0));
#310=DIRECTION('',(0.0,0.0,-1.0));
#311=SURFACE_STYLE_FILL_AREA(#404);
#312=ORIENTED_EDGE('',*,*,#405,.T.);
#313=ORIENTED_EDGE('',*,*,#397,.T.);
#314=ORIENTED_EDGE('',*,*,#371,.T.);
#315=ORIENTED_EDGE('',*,*,#359,.T.);
#316=CARTESIAN_POINT('',(0.31496062992126,1.92913385826772,0.0));
#317=DIRECTION('',(-0.0,-0.0,-1.0));
#318=DIRECTION('',(-0.707106781186547,0.707106781186548,0.0));
#319=SURFACE_STYLE_FILL_AREA(#406);
#320=ORIENTED_EDGE('',*,*,#394,.T.);
#321=ORIENTED_EDGE('',*,*,#407,.F.);
#322=ORIENTED_EDGE('',*,*,#366,.F.);
#323=ORIENTED_EDGE('',*,*,#401,.T.);
#324=CARTESIAN_POINT('',(0.236220472440945,0.0,0.0));
#325=DIRECTION('',(0.0,-1.0,0.0));
#326=DIRECTION('',(0.0,0.0,-1.0));
#327=SURFACE_STYLE_FILL_AREA(#408);
#328=ORIENTED_EDGE('',*,*,#403,.T.);
#329=ORIENTED_EDGE('',*,*,#384,.T.);
#330=ORIENTED_EDGE('',*,*,#409,.F.);
#331=ORIENTED_EDGE('',*,*,#367,.F.);
#332=ORIENTED_EDGE('',*,*,#407,.T.);
#333=ORIENTED_EDGE('',*,*,#393,.T.);
#334=CARTESIAN_POINT('',(0.0,0.0,0.0));
#335=DIRECTION('',(-1.0,0.0,0.0));
#336=DIRECTION('',(0.0,0.0,1.0));
#337=SURFACE_STYLE_FILL_AREA(#410);
#338=ORIENTED_EDGE('',*,*,#396,.T.);
#339=ORIENTED_EDGE('',*,*,#389,.F.);
#340=ORIENTED_EDGE('',*,*,#361,.F.);
#341=ORIENTED_EDGE('',*,*,#373,.T.);
#342=CARTESIAN_POINT('',(1.61417322834646,2.24409448818898,0.0));
#343=DIRECTION('',(1.0,0.0,0.0));
#344=DIRECTION('',(0.0,0.0,-1.0));
#345=SURFACE_STYLE_FILL_AREA(#411);
#346=ORIENTED_EDGE('',*,*,#405,.F.);
#347=ORIENTED_EDGE('',*,*,#368,.T.);
#348=ORIENTED_EDGE('',*,*,#409,.T.);
#349=ORIENTED_EDGE('',*,*,#392,.T.);
#350=CARTESIAN_POINT('',(0.31496062992126,1.92913385826772,0.0));
#351=DIRECTION('',(-0.0,-0.0,-1.0));
#352=DIRECTION('',(-0.707106781186547,0.707106781186548,0.0));
#353=FILL_AREA_STYLE('',(#412));
#354=EDGE_CURVE('',#413,#414,#415,.T.);
#355=EDGE_CURVE('',#416,#413,#417,.T.);
#356=EDGE_CURVE('',#418,#416,#419,.T.);
#357=EDGE_CURVE('',#414,#418,#420,.T.);
#358=FILL_AREA_STYLE('',(#421));
#359=EDGE_CURVE('',#422,#423,#424,.T.);
#360=EDGE_CURVE('',#422,#425,#426,.T.);
#361=EDGE_CURVE('',#425,#427,#428,.T.);
#362=EDGE_CURVE('',#427,#429,#430,.T.);
#363=EDGE_CURVE('',#431,#429,#432,.T.);
#364=EDGE_CURVE('',#433,#431,#434,.T.);
#365=EDGE_CURVE('',#433,#435,#436,.T.);
#366=EDGE_CURVE('',#435,#437,#438,.T.);
#367=EDGE_CURVE('',#437,#439,#440,.T.);
#368=EDGE_CURVE('',#423,#439,#441,.T.);
#369=FILL_AREA_STYLE('',(#442));
#370=EDGE_CURVE('',#418,#414,#443,.T.);
#371=EDGE_CURVE('',#444,#422,#445,.T.);
#372=EDGE_CURVE('',#444,#446,#447,.T.);
#373=EDGE_CURVE('',#425,#446,#448,.T.);
#374=FILL_AREA_STYLE('',(#449));
#375=EDGE_CURVE('',#413,#416,#450,.T.);
#376=FILL_AREA_STYLE('',(#451));
#377=EDGE_CURVE('',#431,#452,#453,.T.);
#378=EDGE_CURVE('',#429,#454,#455,.T.);
#379=EDGE_CURVE('',#454,#452,#456,.T.);
#380=FILL_AREA_STYLE('',(#457));
#381=EDGE_CURVE('',#458,#459,#460,.T.);
#382=EDGE_CURVE('',#461,#458,#462,.T.);
#383=EDGE_CURVE('',#463,#461,#464,.T.);
#384=EDGE_CURVE('',#459,#463,#465,.T.);
#385=FILL_AREA_STYLE('',(#466));
#386=EDGE_CURVE('',#452,#467,#468,.T.);
#387=EDGE_CURVE('',#467,#433,#469,.T.);
#388=FILL_AREA_STYLE('',(#470));
#389=EDGE_CURVE('',#427,#471,#472,.T.);
#390=EDGE_CURVE('',#471,#454,#473,.T.);
#391=FILL_AREA_STYLE('',(#474));
#392=EDGE_CURVE('',#475,#476,#477,.T.);
#393=EDGE_CURVE('',#478,#475,#479,.T.);
#394=EDGE_CURVE('',#480,#478,#481,.T.);
#395=EDGE_CURVE('',#467,#480,#482,.T.);
#396=EDGE_CURVE('',#446,#471,#483,.T.);
#397=EDGE_CURVE('',#476,#444,#484,.T.);
#398=FILL_AREA_STYLE('',(#485));
#399=FILL_AREA_STYLE('',(#486));
#400=EDGE_CURVE('',#458,#461,#487,.T.);
#401=EDGE_CURVE('',#435,#480,#488,.T.);
#402=FILL_AREA_STYLE('',(#489));
#403=EDGE_CURVE('',#463,#459,#490,.T.);
#404=FILL_AREA_STYLE('',(#491));
#405=EDGE_CURVE('',#423,#476,#492,.T.);
#406=FILL_AREA_STYLE('',(#493));
#407=EDGE_CURVE('',#437,#478,#494,.T.);
#408=FILL_AREA_STYLE('',(#495));
#409=EDGE_CURVE('',#439,#475,#496,.T.);
#410=FILL_AREA_STYLE('',(#497));
#411=FILL_AREA_STYLE('',(#498));
#412=FILL_AREA_STYLE_COLOUR('',#499);
#413=VERTEX_POINT('',#500);
#414=VERTEX_POINT('',#501);
#415=LINE('',#502,#503);
#416=VERTEX_POINT('',#504);
#417=CIRCLE('',#505,0.275590551181102);
#418=VERTEX_POINT('',#506);
#419=LINE('',#507,#508);
#420=CIRCLE('',#509,0.275590551181102);
#421=FILL_AREA_STYLE_COLOUR('',#510);
#422=VERTEX_POINT('',#511);
#423=VERTEX_POINT('',#512);
#424=CIRCLE('',#513,0.31496062992126);
#425=VERTEX_POINT('',#514);
#426=LINE('',#515,#516);
#427=VERTEX_POINT('',#517);
#428=LINE('',#518,#519);
#429=VERTEX_POINT('',#520);
#430=LINE('',#521,#522);
#431=VERTEX_POINT('',#523);
#432=CIRCLE('',#524,0.078740157480315);
#433=VERTEX_POINT('',#525);
#434=CIRCLE('',#526,0.078740157480315);
#435=VERTEX_POINT('',#527);
#436=LINE('',#528,#529);
#437=VERTEX_POINT('',#530);
#438=LINE('',#531,#532);
#439=VERTEX_POINT('',#533);
#440=LINE('',#534,#535);
#441=CIRCLE('',#536,0.31496062992126);
#442=FILL_AREA_STYLE_COLOUR('',#537);
#443=CIRCLE('',#538,0.275590551181102);
#444=VERTEX_POINT('',#539);
#445=LINE('',#540,#541);
#446=VERTEX_POINT('',#542);
#447=LINE('',#543,#544);
#448=LINE('',#545,#546);
#449=FILL_AREA_STYLE_COLOUR('',#547);
#450=CIRCLE('',#548,0.275590551181102);
#451=FILL_AREA_STYLE_COLOUR('',#549);
#452=VERTEX_POINT('',#550);
#453=LINE('',#551,#552);
#454=VERTEX_POINT('',#553);
#455=LINE('',#554,#555);
#456=CIRCLE('',#556,0.078740157480315);
#457=FILL_AREA_STYLE_COLOUR('',#557);
#458=VERTEX_POINT('',#558);
#459=VERTEX_POINT('',#559);
#460=LINE('',#560,#561);
#461=VERTEX_POINT('',#562);
#462=CIRCLE('',#563,0.275590551181102);
#463=VERTEX_POINT('',#564);
#464=LINE('',#565,#566);
#465=CIRCLE('',#567,0.275590551181102);
#466=FILL_AREA_STYLE_COLOUR('',#568);
#467=VERTEX_POINT('',#569);
#468=CIRCLE('',#570,0.078740157480315);
#469=LINE('',#571,#572);
#470=FILL_AREA_STYLE_COLOUR('',#573);
#471=VERTEX_POINT('',#574);
#472=LINE('',#575,#576);
#473=LINE('',#577,#578);
#474=FILL_AREA_STYLE_COLOUR('',#579);
#475=VERTEX_POINT('',#580);
#476=VERTEX_POINT('',#581);
#477=CIRCLE('',#582,0.31496062992126);
#478=VERTEX_POINT('',#583);
#479=LINE('',#584,#585);
#480=VERTEX_POINT('',#586);
#481=LINE('',#587,#588);
#482=LINE('',#589,#590);
#483=LINE('',#591,#592);
#484=CIRCLE('',#593,0.31496062992126);
#485=FILL_AREA_STYLE_COLOUR('',#594);
#486=FILL_AREA_STYLE_COLOUR('',#595);
#487=CIRCLE('',#596,0.275590551181102);
#488=LINE('',#597,#598);
#489=FILL_AREA_STYLE_COLOUR('',#599);
#490=CIRCLE('',#600,0.275590551181102);
#491=FILL_AREA_STYLE_COLOUR('',#601);
#492=LINE('',#602,#603);
#493=FILL_AREA_STYLE_COLOUR('',#604);
#494=LINE('',#605,#606);
#495=FILL_AREA_STYLE_COLOUR('',#607);
#496=LINE('',#608,#609);
#497=FILL_AREA_STYLE_COLOUR('',#610);
#498=FILL_AREA_STYLE_COLOUR('',#611);
#499=COLOUR_RGB('',0.0,1.0,0.0);
#500=CARTESIAN_POINT('',(0.531496062992126,2.00787401574803,0.807086614173228));
#501=CARTESIAN_POINT('',(0.531496062992126,2.24409448818898,0.807086614173228));
#502=CARTESIAN_POINT('',(0.531496062992126,2.24409448818898,0.807086614173228));
#503=VECTOR('',#612,1.0);
#504=CARTESIAN_POINT('',(1.08267716535433,2.00787401574803,0.807086614173228));
#505=AXIS2_PLACEMENT_3D('',#613,#614,#615);
#506=CARTESIAN_POINT('',(1.08267716535433,2.24409448818898,0.807086614173228));
#507=CARTESIAN_POINT('',(1.08267716535433,2.24409448818898,0.807086614173228));
#508=VECTOR('',#616,1.0);
#509=AXIS2_PLACEMENT_3D('',#617,#618,#619);
#510=COLOUR_RGB('',0.0,1.0,0.0);
#511=CARTESIAN_POINT('',(0.31496062992126,2.24409448818898,0.0));
#512=CARTESIAN_POINT('',(0.0922498326971504,2.15184465549183,0.0));
#513=AXIS2_PLACEMENT_3D('',#620,#621,#622);
#514=CARTESIAN_POINT('',(1.61417322834646,2.24409448818898,0.0));
#515=CARTESIAN_POINT('',(0.0,2.24409448818898,0.0));
#516=VECTOR('',#623,0.393700787401575);
#517=CARTESIAN_POINT('',(1.61417322834646,2.00787401574803,0.0));
#518=CARTESIAN_POINT('',(1.61417322834646,2.24409448818898,0.0));
#519=VECTOR('',#624,0.393700787401575);
#520=CARTESIAN_POINT('',(0.31496062992126,2.00787401574803,0.0));
#521=CARTESIAN_POINT('',(1.61417322834646,2.00787401574803,0.0));
#522=VECTOR('',#625,0.393700787401575);
#523=CARTESIAN_POINT('',(0.259282930615233,1.98481155757374,0.0));
#524=AXIS2_PLACEMENT_3D('',#626,#627,#628);
#525=CARTESIAN_POINT('',(0.236220472440945,1.92913385826772,0.0));
#526=AXIS2_PLACEMENT_3D('',#629,#630,#631);
#527=CARTESIAN_POINT('',(0.236220472440945,0.0,0.0));
#528=CARTESIAN_POINT('',(0.236220472440945,2.00787401574803,0.0));
#529=VECTOR('',#632,0.393700787401575);
#530=CARTESIAN_POINT('',(0.0,0.0,0.0));
#531=CARTESIAN_POINT('',(0.236220472440945,0.0,0.0));
#532=VECTOR('',#633,0.393700787401575);
#533=CARTESIAN_POINT('',(0.0,1.92913385826772,0.0));
#534=CARTESIAN_POINT('',(0.0,0.0,0.0));
#535=VECTOR('',#634,0.393700787401575);
#536=AXIS2_PLACEMENT_3D('',#635,#636,#637);
#537=COLOUR_RGB('',0.0,1.0,0.0);
#538=AXIS2_PLACEMENT_3D('',#638,#639,#640);
#539=CARTESIAN_POINT('',(0.31496062992126,2.24409448818898,1.61417322834646));
#540=CARTESIAN_POINT('',(0.31496062992126,2.24409448818898,0.0));
#541=VECTOR('',#641,0.393700787401575);
#542=CARTESIAN_POINT('',(1.61417322834646,2.24409448818898,1.61417322834646));
#543=CARTESIAN_POINT('',(0.0,2.24409448818898,1.61417322834646));
#544=VECTOR('',#642,0.393700787401575);
#545=CARTESIAN_POINT('',(1.61417322834646,2.24409448818898,0.0));
#546=VECTOR('',#643,0.393700787401575);
#547=COLOUR_RGB('',0.0,1.0,0.0);
#548=AXIS2_PLACEMENT_3D('',#644,#645,#646);
#549=COLOUR_RGB('',0.0,1.0,0.0);
#550=CARTESIAN_POINT('',(0.259282930615233,1.98481155757374,1.61417322834646));
#551=CARTESIAN_POINT('',(0.259282930615233,1.98481155757374,0.0));
#552=VECTOR('',#647,1.0);
#553=CARTESIAN_POINT('',(0.31496062992126,2.00787401574803,1.61417322834646));
#554=CARTESIAN_POINT('',(0.31496062992126,2.00787401574803,0.0));
#555=VECTOR('',#648,0.393700787401575);
#556=AXIS2_PLACEMENT_3D('',#649,#650,#651);
#557=COLOUR_RGB('',0.0,1.0,0.0);
#558=CARTESIAN_POINT('',(0.236220472440945,0.807086614173228,0.531496062992126));
#559=CARTESIAN_POINT('',(0.0,0.807086614173228,0.531496062992126));
#560=CARTESIAN_POINT('',(0.0,0.807086614173228,0.531496062992126));
#561=VECTOR('',#652,1.0);
#562=CARTESIAN_POINT('',(0.236220472440945,0.807086614173228,1.08267716535433));
#563=AXIS2_PLACEMENT_3D('',#653,#654,#655);
#564=CARTESIAN_POINT('',(0.0,0.807086614173228,1.08267716535433));
#565=CARTESIAN_POINT('',(0.0,0.807086614173228,1.08267716535433));
#566=VECTOR('',#656,1.0);
#567=AXIS2_PLACEMENT_3D('',#657,#658,#659);
#568=COLOUR_RGB('',0.0,1.0,0.0);
#569=CARTESIAN_POINT('',(0.236220472440945,1.92913385826772,1.61417322834646));
#570=AXIS2_PLACEMENT_3D('',#660,#661,#662);
#571=CARTESIAN_POINT('',(0.236220472440945,1.92913385826772,0.0));
#572=VECTOR('',#663,0.393700787401575);
#573=COLOUR_RGB('',0.0,1.0,0.0);
#574=CARTESIAN_POINT('',(1.61417322834646,2.00787401574803,1.61417322834646));
#575=CARTESIAN_POINT('',(1.61417322834646,2.00787401574803,0.0));
#576=VECTOR('',#664,0.393700787401575);
#577=CARTESIAN_POINT('',(1.61417322834646,2.00787401574803,1.61417322834646));
#578=VECTOR('',#665,0.393700787401575);
#579=COLOUR_RGB('',0.0,1.0,0.0);
#580=CARTESIAN_POINT('',(0.0,1.92913385826772,1.61417322834646));
#581=CARTESIAN_POINT('',(0.0922498326971504,2.15184465549183,1.61417322834646));
#582=AXIS2_PLACEMENT_3D('',#666,#667,#668);
#583=CARTESIAN_POINT('',(0.0,0.0,1.61417322834646));
#584=CARTESIAN_POINT('',(0.0,0.0,1.61417322834646));
#585=VECTOR('',#669,0.393700787401575);
#586=CARTESIAN_POINT('',(0.236220472440945,0.0,1.61417322834646));
#587=CARTESIAN_POINT('',(0.236220472440945,0.0,1.61417322834646));
#588=VECTOR('',#670,0.393700787401575);
#589=CARTESIAN_POINT('',(0.236220472440945,2.00787401574803,1.61417322834646));
#590=VECTOR('',#671,0.393700787401575);
#591=CARTESIAN_POINT('',(1.61417322834646,2.24409448818898,1.61417322834646));
#592=VECTOR('',#672,0.393700787401575);
#593=AXIS2_PLACEMENT_3D('',#673,#674,#675);
#594=COLOUR_RGB('',0.0,1.0,0.0);
#595=COLOUR_RGB('',0.0,1.0,0.0);
#596=AXIS2_PLACEMENT_3D('',#676,#677,#678);
#597=CARTESIAN_POINT('',(0.236220472440945,0.0,0.0));
#598=VECTOR('',#679,0.393700787401575);
#599=COLOUR_RGB('',0.0,1.0,0.0);
#600=AXIS2_PLACEMENT_3D('',#680,#681,#682);
#601=COLOUR_RGB('',0.0,1.0,0.0);
#602=CARTESIAN_POINT('',(0.0922498326971504,2.15184465549183,0.0));
#603=VECTOR('',#683,1.0);
#604=COLOUR_RGB('',0.0,1.0,0.0);
#605=CARTESIAN_POINT('',(0.0,0.0,0.0));
#606=VECTOR('',#684,0.393700787401575);
#607=COLOUR_RGB('',0.0,1.0,0.0);
#608=CARTESIAN_POINT('',(0.0,1.92913385826772,0.0));
#609=VECTOR('',#685,0.393700787401575);
#610=COLOUR_RGB('',0.0,1.0,0.0);
#611=COLOUR_RGB('',0.0,1.0,0.0);
#612=DIRECTION('',(0.0,1.0,-0.0));
#613=CARTESIAN_POINT('',(0.807086614173228,2.00787401574803,0.807086614173228));
#614=DIRECTION('',(0.0,1.0,0.0));
#615=DIRECTION('',(-1.0,0.0,0.0));
#616=DIRECTION('',(0.0,-1.0,0.0));
#617=CARTESIAN_POINT('',(0.807086614173228,2.24409448818898,0.807086614173228));
#618=DIRECTION('',(0.0,-1.0,0.0));
#619=DIRECTION('',(-1.0,0.0,0.0));
#620=CARTESIAN_POINT('',(0.31496062992126,1.92913385826772,0.0));
#621=DIRECTION('',(0.0,0.0,1.0));
#622=DIRECTION('',(-0.707106781186547,0.707106781186548,0.0));
#623=DIRECTION('',(1.0,0.0,0.0));
#624=DIRECTION('',(0.0,-1.0,0.0));
#625=DIRECTION('',(-1.0,0.0,0.0));
#626=CARTESIAN_POINT('',(0.31496062992126,1.92913385826772,0.0));
#627=DIRECTION('',(0.0,0.0,-1.0));
#628=DIRECTION('',(-0.707106781186546,0.707106781186549,0.0));
#629=CARTESIAN_POINT('',(0.31496062992126,1.92913385826772,0.0));
#630=DIRECTION('',(0.0,0.0,-1.0));
#631=DIRECTION('',(-0.707106781186546,0.707106781186549,0.0));
#632=DIRECTION('',(0.0,-1.0,0.0));
#633=DIRECTION('',(-1.0,0.0,0.0));
#634=DIRECTION('',(0.0,1.0,0.0));
#635=CARTESIAN_POINT('',(0.31496062992126,1.92913385826772,0.0));
#636=DIRECTION('',(0.0,0.0,1.0));
#637=DIRECTION('',(-0.707106781186547,0.707106781186548,0.0));
#638=CARTESIAN_POINT('',(0.807086614173228,2.24409448818898,0.807086614173228));
#639=DIRECTION('',(0.0,-1.0,0.0));
#640=DIRECTION('',(-1.0,0.0,0.0));
#641=DIRECTION('',(0.0,0.0,-1.0));
#642=DIRECTION('',(1.0,0.0,0.0));
#643=DIRECTION('',(0.0,0.0,1.0));
#644=CARTESIAN_POINT('',(0.807086614173228,2.00787401574803,0.807086614173228));
#645=DIRECTION('',(0.0,1.0,0.0));
#646=DIRECTION('',(-1.0,0.0,0.0));
#647=DIRECTION('',(0.0,-0.0,1.0));
#648=DIRECTION('',(0.0,0.0,1.0));
#649=CARTESIAN_POINT('',(0.31496062992126,1.92913385826772,1.61417322834646));
#650=DIRECTION('',(0.0,0.0,1.0));
#651=DIRECTION('',(-0.707106781186546,0.707106781186549,0.0));
#652=DIRECTION('',(-1.0,-0.0,0.0));
#653=CARTESIAN_POINT('',(0.236220472440945,0.807086614173228,0.807086614173228));
#654=DIRECTION('',(-1.0,0.0,0.0));
#655=DIRECTION('',(0.0,0.0,-1.0));
#656=DIRECTION('',(1.0,0.0,0.0));
#657=CARTESIAN_POINT('',(0.0,0.807086614173228,0.807086614173228));
#658=DIRECTION('',(1.0,0.0,0.0));
#659=DIRECTION('',(0.0,0.0,-1.0));
#660=CARTESIAN_POINT('',(0.31496062992126,1.92913385826772,1.61417322834646));
#661=DIRECTION('',(0.0,0.0,1.0));
#662=DIRECTION('',(-0.707106781186546,0.707106781186549,0.0));
#663=DIRECTION('',(0.0,0.0,-1.0));
#664=DIRECTION('',(0.0,0.0,1.0));
#665=DIRECTION('',(-1.0,0.0,0.0));
#666=CARTESIAN_POINT('',(0.31496062992126,1.92913385826772,1.61417322834646));
#667=DIRECTION('',(0.0,0.0,-1.0));
#668=DIRECTION('',(-0.707106781186547,0.707106781186548,0.0));
#669=DIRECTION('',(0.0,1.0,0.0));
#670=DIRECTION('',(-1.0,0.0,0.0));
#671=DIRECTION('',(0.0,-1.0,0.0));
#672=DIRECTION('',(0.0,-1.0,0.0));
#673=CARTESIAN_POINT('',(0.31496062992126,1.92913385826772,1.61417322834646));
#674=DIRECTION('',(0.0,0.0,-1.0));
#675=DIRECTION('',(-0.707106781186547,0.707106781186548,0.0));
#676=CARTESIAN_POINT('',(0.236220472440945,0.807086614173228,0.807086614173228));
#677=DIRECTION('',(-1.0,0.0,0.0));
#678=DIRECTION('',(0.0,0.0,-1.0));
#679=DIRECTION('',(0.0,0.0,1.0));
#680=CARTESIAN_POINT('',(0.0,0.807086614173228,0.807086614173228));
#681=DIRECTION('',(1.0,0.0,0.0));
#682=DIRECTION('',(0.0,0.0,-1.0));
#683=DIRECTION('',(0.0,0.0,1.0));
#684=DIRECTION('',(0.0,0.0,1.0));
#685=DIRECTION('',(0.0,0.0,1.0));
ENDSEC;
END-ISO-10303-21;
