ISO-10303-21;
HEADER;
FILE_DESCRIPTION(('TurboCAD Mac Pro'),'Build 980');
FILE_NAME('P1334.stp','  ',(''),(''),'ACIS Interop','IMSI','TurboCAD Mac Pro BY IMSI, INCORPORATED');
FILE_SCHEMA(('automotive_design'));
ENDSEC;
DATA;
#1=MECHANICAL_DESIGN_GEOMETRIC_PRESENTATION_REPRESENTATION(' ',(#14,#15,#16,#17,#18,#19,#20,#21,#22,#23,#24,#25,#26,#27,#28,#29,#30),#10);
#2=PRODUCT_DEFINITION_CONTEXT('',#31,'design');
#3=APPLICATION_PROTOCOL_DEFINITION('INTERNATIONAL STANDARD','automotive_design',1994,#31);
#4=PRODUCT_CATEGORY_RELATIONSHIP('NONE','NONE',#32,#33);
#5=SHAPE_DEFINITION_REPRESENTATION(#34,#35);
#6=PRODUCT_DEFINITION_CONTEXT('',#36,'design');
#7=APPLICATION_PROTOCOL_DEFINITION('INTERNATIONAL STANDARD','automotive_design',1994,#36);
#8=PRODUCT_CATEGORY_RELATIONSHIP('NONE','NONE',#37,#38);
#9=SHAPE_DEFINITION_REPRESENTATION(#39,#40);
#10= (GEOMETRIC_REPRESENTATION_CONTEXT(3)GLOBAL_UNCERTAINTY_ASSIGNED_CONTEXT((#43))GLOBAL_UNIT_ASSIGNED_CONTEXT((#45,#46,#47))REPRESENTATION_CONTEXT('NONE','WORKSPACE'));
#14=STYLED_ITEM('',(#49),#50);
#15=STYLED_ITEM('',(#51),#52);
#16=STYLED_ITEM('',(#53),#54);
#17=STYLED_ITEM('',(#55),#56);
#18=STYLED_ITEM('',(#57),#58);
#19=STYLED_ITEM('',(#59),#60);
#20=STYLED_ITEM('',(#61),#62);
#21=STYLED_ITEM('',(#63),#64);
#22=STYLED_ITEM('',(#65),#66);
#23=STYLED_ITEM('',(#67),#68);
#24=STYLED_ITEM('',(#69),#70);
#25=STYLED_ITEM('',(#71),#72);
#26=STYLED_ITEM('',(#73),#74);
#27=STYLED_ITEM('',(#75),#76);
#28=STYLED_ITEM('',(#77),#78);
#29=STYLED_ITEM('',(#79),#80);
#30=STYLED_ITEM('',(#81),#82);
#31=APPLICATION_CONTEXT(' ');
#32=PRODUCT_CATEGORY('part','NONE');
#33=PRODUCT_RELATED_PRODUCT_CATEGORY('detail',' ',(#83));
#34=PRODUCT_DEFINITION_SHAPE('NONE','NONE',#84);
#35=ADVANCED_BREP_SHAPE_REPRESENTATION('1',(#68,#85),#10);
#36=APPLICATION_CONTEXT(' ');
#37=PRODUCT_CATEGORY('part','NONE');
#38=PRODUCT_RELATED_PRODUCT_CATEGORY('detail',' ',(#86));
#39=PRODUCT_DEFINITION_SHAPE('NONE','NONE',#87);
#40=GEOMETRICALLY_BOUNDED_SURFACE_SHAPE_REPRESENTATION('2',(#88,#89),#10);
#43=UNCERTAINTY_MEASURE_WITH_UNIT(LENGTH_MEASURE(1.0E-06),#45,'','');
#45= (CONVERSION_BASED_UNIT('INCH',#92)LENGTH_UNIT()NAMED_UNIT(#95));
#46= (NAMED_UNIT(#97)PLANE_ANGLE_UNIT()SI_UNIT($,.RADIAN.));
#47= (NAMED_UNIT(#97)SOLID_ANGLE_UNIT()SI_UNIT($,.STERADIAN.));
#49=PRESENTATION_STYLE_ASSIGNMENT((#103));
#50=ADVANCED_FACE('',(#104),#105,.F.);
#51=PRESENTATION_STYLE_ASSIGNMENT((#106));
#52=ADVANCED_FACE('',(#107),#108,.F.);
#53=PRESENTATION_STYLE_ASSIGNMENT((#109));
#54=TRIMMED_CURVE('',#110,(PARAMETER_VALUE(0.0)),(PARAMETER_VALUE(6.28318530717959)),.T.,.UNSPECIFIED.);
#55=PRESENTATION_STYLE_ASSIGNMENT((#111));
#56=ADVANCED_FACE('',(#112),#113,.F.);
#57=PRESENTATION_STYLE_ASSIGNMENT((#114));
#58=ADVANCED_FACE('',(#115),#116,.T.);
#59=PRESENTATION_STYLE_ASSIGNMENT((#117));
#60=ADVANCED_FACE('',(#118),#119,.T.);
#61=PRESENTATION_STYLE_ASSIGNMENT((#120));
#62=ADVANCED_FACE('',(#121),#122,.F.);
#63=PRESENTATION_STYLE_ASSIGNMENT((#123));
#64=ADVANCED_FACE('',(#124),#125,.T.);
#65=PRESENTATION_STYLE_ASSIGNMENT((#126));
#66=ADVANCED_FACE('',(#127),#128,.T.);
#67=PRESENTATION_STYLE_ASSIGNMENT((#129));
#68=MANIFOLD_SOLID_BREP('1',#130);
#69=PRESENTATION_STYLE_ASSIGNMENT((#131));
#70=ADVANCED_FACE('',(#132),#133,.T.);
#71=PRESENTATION_STYLE_ASSIGNMENT((#134));
#72=ADVANCED_FACE('',(#135,#136,#137,#138),#139,.F.);
#73=PRESENTATION_STYLE_ASSIGNMENT((#140));
#74=ADVANCED_FACE('',(#141),#142,.F.);
#75=PRESENTATION_STYLE_ASSIGNMENT((#143));
#76=TRIMMED_CURVE('',#144,(PARAMETER_VALUE(0.0)),(PARAMETER_VALUE(6.28318530717959)),.T.,.UNSPECIFIED.);
#77=PRESENTATION_STYLE_ASSIGNMENT((#145));
#78=TRIMMED_CURVE('',#146,(PARAMETER_VALUE(0.0)),(PARAMETER_VALUE(6.28318530717959)),.T.,.UNSPECIFIED.);
#79=PRESENTATION_STYLE_ASSIGNMENT((#147));
#80=ADVANCED_FACE('',(#148),#149,.F.);
#81=PRESENTATION_STYLE_ASSIGNMENT((#150));
#82=ADVANCED_FACE('',(#151,#152,#153,#154),#155,.T.);
#83=PRODUCT('1','1','PART-1-DESC',(#156));
#84=PRODUCT_DEFINITION('NONE','NONE',#157,#2);
#85=AXIS2_PLACEMENT_3D('',#158,#159,#160);
#86=PRODUCT('2','2','PART-2-DESC',(#161));
#87=PRODUCT_DEFINITION('NONE','NONE',#162,#6);
#88=GEOMETRIC_SET('2',(#163,#164,#165));
#89=AXIS2_PLACEMENT_3D('',#166,#167,#168);
#92=LENGTH_MEASURE_WITH_UNIT(LENGTH_MEASURE(25.4),#169);
#95=DIMENSIONAL_EXPONENTS(1.0,0.0,0.0,0.0,0.0,0.0,0.0);
#97=DIMENSIONAL_EXPONENTS(0.0,0.0,0.0,0.0,0.0,0.0,0.0);
#103=SURFACE_STYLE_USAGE(.BOTH.,#170);
#104=FACE_OUTER_BOUND('',#171,.T.);
#105=CYLINDRICAL_SURFACE('',#172,0.28125);
#106=SURFACE_STYLE_USAGE(.BOTH.,#173);
#107=FACE_OUTER_BOUND('',#174,.T.);
#108=CYLINDRICAL_SURFACE('',#175,0.28125);
#109=CURVE_STYLE('',#176,POSITIVE_LENGTH_MEASURE(1.0E-06),#177);
#110=CIRCLE('',#178,0.28125);
#111=SURFACE_STYLE_USAGE(.BOTH.,#179);
#112=FACE_OUTER_BOUND('',#180,.T.);
#113=CYLINDRICAL_SURFACE('',#181,0.28125);
#114=SURFACE_STYLE_USAGE(.BOTH.,#182);
#115=FACE_OUTER_BOUND('',#183,.T.);
#116=PLANE('',#184);
#117=SURFACE_STYLE_USAGE(.BOTH.,#185);
#118=FACE_OUTER_BOUND('',#186,.T.);
#119=PLANE('',#187);
#120=SURFACE_STYLE_USAGE(.BOTH.,#188);
#121=FACE_OUTER_BOUND('',#189,.T.);
#122=CYLINDRICAL_SURFACE('',#190,0.28125);
#123=SURFACE_STYLE_USAGE(.BOTH.,#191);
#124=FACE_OUTER_BOUND('',#192,.T.);
#125=PLANE('',#193);
#126=SURFACE_STYLE_USAGE(.BOTH.,#194);
#127=FACE_OUTER_BOUND('',#195,.T.);
#128=PLANE('',#196);
#129=SURFACE_STYLE_USAGE(.BOTH.,#197);
#130=CLOSED_SHELL('',(#80,#74,#62,#70,#64,#58,#66,#60,#52,#50,#56,#82,#72));
#131=SURFACE_STYLE_USAGE(.BOTH.,#198);
#132=FACE_OUTER_BOUND('',#199,.T.);
#133=PLANE('',#200);
#134=SURFACE_STYLE_USAGE(.BOTH.,#201);
#135=FACE_BOUND('',#202,.T.);
#136=FACE_BOUND('',#203,.T.);
#137=FACE_BOUND('',#204,.T.);
#138=FACE_OUTER_BOUND('',#205,.T.);
#139=PLANE('',#206);
#140=SURFACE_STYLE_USAGE(.BOTH.,#207);
#141=FACE_OUTER_BOUND('',#208,.T.);
#142=CYLINDRICAL_SURFACE('',#209,0.28125);
#143=CURVE_STYLE('',#210,POSITIVE_LENGTH_MEASURE(1.0E-06),#211);
#144=CIRCLE('',#212,0.28125);
#145=CURVE_STYLE('',#213,POSITIVE_LENGTH_MEASURE(1.0E-06),#214);
#146=CIRCLE('',#215,0.28125);
#147=SURFACE_STYLE_USAGE(.BOTH.,#216);
#148=FACE_OUTER_BOUND('',#217,.T.);
#149=CYLINDRICAL_SURFACE('',#218,0.28125);
#150=SURFACE_STYLE_USAGE(.BOTH.,#219);
#151=FACE_BOUND('',#220,.T.);
#152=FACE_BOUND('',#221,.T.);
#153=FACE_BOUND('',#222,.T.);
#154=FACE_OUTER_BOUND('',#223,.T.);
#155=PLANE('',#224);
#156=PRODUCT_CONTEXT('',#31,'mechanical');
#157=PRODUCT_DEFINITION_FORMATION_WITH_SPECIFIED_SOURCE(' ','NONE',#83,.NOT_KNOWN.);
#158=CARTESIAN_POINT('',(0.0,0.0,0.0));
#159=DIRECTION('',(0.0,0.0,1.0));
#160=DIRECTION('',(1.0,0.0,0.0));
#161=PRODUCT_CONTEXT('',#36,'mechanical');
#162=PRODUCT_DEFINITION_FORMATION_WITH_SPECIFIED_SOURCE(' ','NONE',#86,.NOT_KNOWN.);
#163=COMPOSITE_CURVE('',(#225),.U.);
#164=COMPOSITE_CURVE('',(#226),.U.);
#165=COMPOSITE_CURVE('',(#227),.U.);
#166=CARTESIAN_POINT('',(0.0,0.0,0.0));
#167=DIRECTION('',(0.0,0.0,1.0));
#168=DIRECTION('',(1.0,0.0,0.0));
#169= (NAMED_UNIT(#95)LENGTH_UNIT()SI_UNIT(.MILLI.,.METRE.));
#170=SURFACE_SIDE_STYLE('',(#229));
#171=EDGE_LOOP('',(#230,#231,#232,#233));
#172=AXIS2_PLACEMENT_3D('',#234,#235,#236);
#173=SURFACE_SIDE_STYLE('',(#237));
#174=EDGE_LOOP('',(#238,#239,#240,#241));
#175=AXIS2_PLACEMENT_3D('',#242,#243,#244);
#176=DRAUGHTING_PRE_DEFINED_CURVE_FONT('continuous');
#177=COLOUR_RGB('',1.0,1.0,1.0);
#178=AXIS2_PLACEMENT_3D('',#245,#246,#247);
#179=SURFACE_SIDE_STYLE('',(#248));
#180=EDGE_LOOP('',(#249,#250,#251,#252));
#181=AXIS2_PLACEMENT_3D('',#253,#254,#255);
#182=SURFACE_SIDE_STYLE('',(#256));
#183=EDGE_LOOP('',(#257,#258,#259,#260));
#184=AXIS2_PLACEMENT_3D('',#261,#262,#263);
#185=SURFACE_SIDE_STYLE('',(#264));
#186=EDGE_LOOP('',(#265,#266,#267,#268));
#187=AXIS2_PLACEMENT_3D('',#269,#270,#271);
#188=SURFACE_SIDE_STYLE('',(#272));
#189=EDGE_LOOP('',(#273,#274,#275,#276));
#190=AXIS2_PLACEMENT_3D('',#277,#278,#279);
#191=SURFACE_SIDE_STYLE('',(#280));
#192=EDGE_LOOP('',(#281,#282,#283,#284));
#193=AXIS2_PLACEMENT_3D('',#285,#286,#287);
#194=SURFACE_SIDE_STYLE('',(#288));
#195=EDGE_LOOP('',(#289,#290,#291,#292));
#196=AXIS2_PLACEMENT_3D('',#293,#294,#295);
#197=SURFACE_SIDE_STYLE('',(#296));
#198=SURFACE_SIDE_STYLE('',(#297));
#199=EDGE_LOOP('',(#298,#299,#300,#301));
#200=AXIS2_PLACEMENT_3D('',#302,#303,#304);
#201=SURFACE_SIDE_STYLE('',(#305));
#202=EDGE_LOOP('',(#306,#307));
#203=EDGE_LOOP('',(#308,#309));
#204=EDGE_LOOP('',(#310,#311));
#205=EDGE_LOOP('',(#312,#313,#314,#315,#316));
#206=AXIS2_PLACEMENT_3D('',#317,#318,#319);
#207=SURFACE_SIDE_STYLE('',(#320));
#208=EDGE_LOOP('',(#321,#322,#323,#324));
#209=AXIS2_PLACEMENT_3D('',#325,#326,#327);
#210=DRAUGHTING_PRE_DEFINED_CURVE_FONT('continuous');
#211=COLOUR_RGB('',1.0,1.0,1.0);
#212=AXIS2_PLACEMENT_3D('',#328,#329,#330);
#213=DRAUGHTING_PRE_DEFINED_CURVE_FONT('continuous');
#214=COLOUR_RGB('',1.0,1.0,1.0);
#215=AXIS2_PLACEMENT_3D('',#331,#332,#333);
#216=SURFACE_SIDE_STYLE('',(#334));
#217=EDGE_LOOP('',(#335,#336,#337,#338));
#218=AXIS2_PLACEMENT_3D('',#339,#340,#341);
#219=SURFACE_SIDE_STYLE('',(#342));
#220=EDGE_LOOP('',(#343,#344));
#221=EDGE_LOOP('',(#345,#346));
#222=EDGE_LOOP('',(#347,#348));
#223=EDGE_LOOP('',(#349,#350,#351,#352,#353));
#224=AXIS2_PLACEMENT_3D('',#354,#355,#356);
#225=COMPOSITE_CURVE_SEGMENT('',.CONTINUOUS.,.T.,#54);
#226=COMPOSITE_CURVE_SEGMENT('',.CONTINUOUS.,.T.,#76);
#227=COMPOSITE_CURVE_SEGMENT('',.CONTINUOUS.,.T.,#78);
#229=SURFACE_STYLE_FILL_AREA(#357);
#230=ORIENTED_EDGE('',*,*,#358,.T.);
#231=ORIENTED_EDGE('',*,*,#359,.T.);
#232=ORIENTED_EDGE('',*,*,#360,.T.);
#233=ORIENTED_EDGE('',*,*,#361,.F.);
#234=CARTESIAN_POINT('',(-0.9375,0.9375,0.0));
#235=DIRECTION('',(-0.0,-0.0,-1.0));
#236=DIRECTION('',(1.0,0.0,0.0));
#237=SURFACE_STYLE_FILL_AREA(#362);
#238=ORIENTED_EDGE('',*,*,#363,.T.);
#239=ORIENTED_EDGE('',*,*,#364,.T.);
#240=ORIENTED_EDGE('',*,*,#365,.T.);
#241=ORIENTED_EDGE('',*,*,#366,.F.);
#242=CARTESIAN_POINT('',(0.937499999999999,0.9375,0.0));
#243=DIRECTION('',(-0.0,-0.0,-1.0));
#244=DIRECTION('',(1.0,0.0,0.0));
#245=CARTESIAN_POINT('',(-0.9375,0.9375,0.0));
#246=DIRECTION('',(0.0,0.0,1.0));
#247=DIRECTION('',(1.0,-3.94745964311167E-16,0.0));
#248=SURFACE_STYLE_FILL_AREA(#367);
#249=ORIENTED_EDGE('',*,*,#368,.T.);
#250=ORIENTED_EDGE('',*,*,#369,.T.);
#251=ORIENTED_EDGE('',*,*,#370,.T.);
#252=ORIENTED_EDGE('',*,*,#371,.F.);
#253=CARTESIAN_POINT('',(-0.937500000000001,-0.9375,0.0));
#254=DIRECTION('',(-0.0,-0.0,-1.0));
#255=DIRECTION('',(1.0,0.0,0.0));
#256=SURFACE_STYLE_FILL_AREA(#372);
#257=ORIENTED_EDGE('',*,*,#373,.T.);
#258=ORIENTED_EDGE('',*,*,#374,.F.);
#259=ORIENTED_EDGE('',*,*,#375,.F.);
#260=ORIENTED_EDGE('',*,*,#376,.T.);
#261=CARTESIAN_POINT('',(0.0,1.75,0.0));
#262=DIRECTION('',(0.0,1.0,0.0));
#263=DIRECTION('',(-1.0,0.0,0.0));
#264=SURFACE_STYLE_FILL_AREA(#377);
#265=ORIENTED_EDGE('',*,*,#378,.T.);
#266=ORIENTED_EDGE('',*,*,#379,.F.);
#267=ORIENTED_EDGE('',*,*,#380,.F.);
#268=ORIENTED_EDGE('',*,*,#381,.T.);
#269=CARTESIAN_POINT('',(0.8125,-0.812500000000001,0.0));
#270=DIRECTION('',(0.707106781186547,-0.707106781186548,0.0));
#271=DIRECTION('',(0.707106781186548,0.707106781186547,-0.0));
#272=SURFACE_STYLE_FILL_AREA(#382);
#273=ORIENTED_EDGE('',*,*,#363,.F.);
#274=ORIENTED_EDGE('',*,*,#383,.F.);
#275=ORIENTED_EDGE('',*,*,#365,.F.);
#276=ORIENTED_EDGE('',*,*,#384,.T.);
#277=CARTESIAN_POINT('',(0.937499999999999,0.9375,0.0));
#278=DIRECTION('',(-0.0,-0.0,-1.0));
#279=DIRECTION('',(1.0,0.0,0.0));
#280=SURFACE_STYLE_FILL_AREA(#385);
#281=ORIENTED_EDGE('',*,*,#386,.T.);
#282=ORIENTED_EDGE('',*,*,#376,.F.);
#283=ORIENTED_EDGE('',*,*,#387,.F.);
#284=ORIENTED_EDGE('',*,*,#388,.T.);
#285=CARTESIAN_POINT('',(-1.75,0.0,0.0));
#286=DIRECTION('',(-1.0,-0.0,0.0));
#287=DIRECTION('',(0.0,-1.0,-0.0));
#288=SURFACE_STYLE_FILL_AREA(#389);
#289=ORIENTED_EDGE('',*,*,#390,.T.);
#290=ORIENTED_EDGE('',*,*,#381,.F.);
#291=ORIENTED_EDGE('',*,*,#391,.F.);
#292=ORIENTED_EDGE('',*,*,#374,.T.);
#293=CARTESIAN_POINT('',(1.75,0.9375,0.0));
#294=DIRECTION('',(1.0,-2.73285667600039E-16,0.0));
#295=DIRECTION('',(2.73285667600039E-16,1.0,-0.0));
#296=SURFACE_STYLE_FILL_AREA(#392);
#297=SURFACE_STYLE_FILL_AREA(#393);
#298=ORIENTED_EDGE('',*,*,#394,.T.);
#299=ORIENTED_EDGE('',*,*,#388,.F.);
#300=ORIENTED_EDGE('',*,*,#395,.F.);
#301=ORIENTED_EDGE('',*,*,#379,.T.);
#302=CARTESIAN_POINT('',(-0.9375,-1.75,0.0));
#303=DIRECTION('',(-4.09928501400058E-16,-1.0,0.0));
#304=DIRECTION('',(1.0,-4.09928501400058E-16,-0.0));
#305=SURFACE_STYLE_FILL_AREA(#396);
#306=ORIENTED_EDGE('',*,*,#371,.T.);
#307=ORIENTED_EDGE('',*,*,#397,.T.);
#308=ORIENTED_EDGE('',*,*,#361,.T.);
#309=ORIENTED_EDGE('',*,*,#398,.T.);
#310=ORIENTED_EDGE('',*,*,#366,.T.);
#311=ORIENTED_EDGE('',*,*,#383,.T.);
#312=ORIENTED_EDGE('',*,*,#380,.T.);
#313=ORIENTED_EDGE('',*,*,#395,.T.);
#314=ORIENTED_EDGE('',*,*,#387,.T.);
#315=ORIENTED_EDGE('',*,*,#375,.T.);
#316=ORIENTED_EDGE('',*,*,#391,.T.);
#317=CARTESIAN_POINT('',(-0.205417248015246,0.205417248015245,0.0));
#318=DIRECTION('',(0.0,0.0,1.0));
#319=DIRECTION('',(1.0,0.0,0.0));
#320=SURFACE_STYLE_FILL_AREA(#399);
#321=ORIENTED_EDGE('',*,*,#358,.F.);
#322=ORIENTED_EDGE('',*,*,#398,.F.);
#323=ORIENTED_EDGE('',*,*,#360,.F.);
#324=ORIENTED_EDGE('',*,*,#400,.T.);
#325=CARTESIAN_POINT('',(-0.9375,0.9375,0.0));
#326=DIRECTION('',(-0.0,-0.0,-1.0));
#327=DIRECTION('',(1.0,0.0,0.0));
#328=CARTESIAN_POINT('',(0.937499999999999,0.9375,0.0));
#329=DIRECTION('',(0.0,0.0,1.0));
#330=DIRECTION('',(1.0,-3.94745964311167E-16,0.0));
#331=CARTESIAN_POINT('',(-0.937500000000001,-0.9375,0.0));
#332=DIRECTION('',(0.0,0.0,1.0));
#333=DIRECTION('',(1.0,-3.94745964311167E-16,0.0));
#334=SURFACE_STYLE_FILL_AREA(#401);
#335=ORIENTED_EDGE('',*,*,#368,.F.);
#336=ORIENTED_EDGE('',*,*,#397,.F.);
#337=ORIENTED_EDGE('',*,*,#370,.F.);
#338=ORIENTED_EDGE('',*,*,#402,.T.);
#339=CARTESIAN_POINT('',(-0.937500000000001,-0.9375,0.0));
#340=DIRECTION('',(-0.0,-0.0,-1.0));
#341=DIRECTION('',(1.0,0.0,0.0));
#342=SURFACE_STYLE_FILL_AREA(#403);
#343=ORIENTED_EDGE('',*,*,#369,.F.);
#344=ORIENTED_EDGE('',*,*,#402,.F.);
#345=ORIENTED_EDGE('',*,*,#359,.F.);
#346=ORIENTED_EDGE('',*,*,#400,.F.);
#347=ORIENTED_EDGE('',*,*,#364,.F.);
#348=ORIENTED_EDGE('',*,*,#384,.F.);
#349=ORIENTED_EDGE('',*,*,#394,.F.);
#350=ORIENTED_EDGE('',*,*,#378,.F.);
#351=ORIENTED_EDGE('',*,*,#390,.F.);
#352=ORIENTED_EDGE('',*,*,#373,.F.);
#353=ORIENTED_EDGE('',*,*,#386,.F.);
#354=CARTESIAN_POINT('',(-0.205417248015246,0.205417248015245,0.25));
#355=DIRECTION('',(0.0,0.0,1.0));
#356=DIRECTION('',(1.0,0.0,0.0));
#357=FILL_AREA_STYLE('',(#404));
#358=EDGE_CURVE('',#405,#406,#407,.T.);
#359=EDGE_CURVE('',#406,#408,#409,.T.);
#360=EDGE_CURVE('',#408,#410,#411,.T.);
#361=EDGE_CURVE('',#405,#410,#412,.T.);
#362=FILL_AREA_STYLE('',(#413));
#363=EDGE_CURVE('',#414,#415,#416,.T.);
#364=EDGE_CURVE('',#415,#417,#418,.T.);
#365=EDGE_CURVE('',#417,#419,#420,.T.);
#366=EDGE_CURVE('',#414,#419,#421,.T.);
#367=FILL_AREA_STYLE('',(#422));
#368=EDGE_CURVE('',#423,#424,#425,.T.);
#369=EDGE_CURVE('',#424,#426,#427,.T.);
#370=EDGE_CURVE('',#426,#428,#429,.T.);
#371=EDGE_CURVE('',#423,#428,#430,.T.);
#372=FILL_AREA_STYLE('',(#431));
#373=EDGE_CURVE('',#432,#433,#434,.T.);
#374=EDGE_CURVE('',#435,#433,#436,.T.);
#375=EDGE_CURVE('',#437,#435,#438,.T.);
#376=EDGE_CURVE('',#437,#432,#439,.T.);
#377=FILL_AREA_STYLE('',(#440));
#378=EDGE_CURVE('',#441,#442,#443,.T.);
#379=EDGE_CURVE('',#444,#442,#445,.T.);
#380=EDGE_CURVE('',#446,#444,#447,.T.);
#381=EDGE_CURVE('',#446,#441,#448,.T.);
#382=FILL_AREA_STYLE('',(#449));
#383=EDGE_CURVE('',#419,#414,#450,.T.);
#384=EDGE_CURVE('',#417,#415,#451,.T.);
#385=FILL_AREA_STYLE('',(#452));
#386=EDGE_CURVE('',#453,#432,#454,.T.);
#387=EDGE_CURVE('',#455,#437,#456,.T.);
#388=EDGE_CURVE('',#455,#453,#457,.T.);
#389=FILL_AREA_STYLE('',(#458));
#390=EDGE_CURVE('',#433,#441,#459,.T.);
#391=EDGE_CURVE('',#435,#446,#460,.T.);
#392=FILL_AREA_STYLE('',(#461));
#393=FILL_AREA_STYLE('',(#462));
#394=EDGE_CURVE('',#442,#453,#463,.T.);
#395=EDGE_CURVE('',#444,#455,#464,.T.);
#396=FILL_AREA_STYLE('',(#465));
#397=EDGE_CURVE('',#428,#423,#466,.T.);
#398=EDGE_CURVE('',#410,#405,#467,.T.);
#399=FILL_AREA_STYLE('',(#468));
#400=EDGE_CURVE('',#408,#406,#469,.T.);
#401=FILL_AREA_STYLE('',(#470));
#402=EDGE_CURVE('',#426,#424,#471,.T.);
#403=FILL_AREA_STYLE('',(#472));
#404=FILL_AREA_STYLE_COLOUR('',#473);
#405=VERTEX_POINT('',#474);
#406=VERTEX_POINT('',#475);
#407=LINE('',#476,#477);
#408=VERTEX_POINT('',#478);
#409=CIRCLE('',#479,0.28125);
#410=VERTEX_POINT('',#480);
#411=LINE('',#481,#482);
#412=CIRCLE('',#483,0.28125);
#413=FILL_AREA_STYLE_COLOUR('',#484);
#414=VERTEX_POINT('',#485);
#415=VERTEX_POINT('',#486);
#416=LINE('',#487,#488);
#417=VERTEX_POINT('',#489);
#418=CIRCLE('',#490,0.28125);
#419=VERTEX_POINT('',#491);
#420=LINE('',#492,#493);
#421=CIRCLE('',#494,0.28125);
#422=FILL_AREA_STYLE_COLOUR('',#495);
#423=VERTEX_POINT('',#496);
#424=VERTEX_POINT('',#497);
#425=LINE('',#498,#499);
#426=VERTEX_POINT('',#500);
#427=CIRCLE('',#501,0.28125);
#428=VERTEX_POINT('',#502);
#429=LINE('',#503,#504);
#430=CIRCLE('',#505,0.28125);
#431=FILL_AREA_STYLE_COLOUR('',#506);
#432=VERTEX_POINT('',#507);
#433=VERTEX_POINT('',#508);
#434=LINE('',#509,#510);
#435=VERTEX_POINT('',#511);
#436=LINE('',#512,#513);
#437=VERTEX_POINT('',#514);
#438=LINE('',#515,#516);
#439=LINE('',#517,#518);
#440=FILL_AREA_STYLE_COLOUR('',#519);
#441=VERTEX_POINT('',#520);
#442=VERTEX_POINT('',#521);
#443=LINE('',#522,#523);
#444=VERTEX_POINT('',#524);
#445=LINE('',#525,#526);
#446=VERTEX_POINT('',#527);
#447=LINE('',#528,#529);
#448=LINE('',#530,#531);
#449=FILL_AREA_STYLE_COLOUR('',#532);
#450=CIRCLE('',#533,0.28125);
#451=CIRCLE('',#534,0.28125);
#452=FILL_AREA_STYLE_COLOUR('',#535);
#453=VERTEX_POINT('',#536);
#454=LINE('',#537,#538);
#455=VERTEX_POINT('',#539);
#456=LINE('',#540,#541);
#457=LINE('',#542,#543);
#458=FILL_AREA_STYLE_COLOUR('',#544);
#459=LINE('',#545,#546);
#460=LINE('',#547,#548);
#461=FILL_AREA_STYLE_COLOUR('',#549);
#462=FILL_AREA_STYLE_COLOUR('',#550);
#463=LINE('',#551,#552);
#464=LINE('',#553,#554);
#465=FILL_AREA_STYLE_COLOUR('',#555);
#466=CIRCLE('',#556,0.28125);
#467=CIRCLE('',#557,0.28125);
#468=FILL_AREA_STYLE_COLOUR('',#558);
#469=CIRCLE('',#559,0.28125);
#470=FILL_AREA_STYLE_COLOUR('',#560);
#471=CIRCLE('',#561,0.28125);
#472=FILL_AREA_STYLE_COLOUR('',#562);
#473=COLOUR_RGB('',0.156862750649452,0.549019634723663,0.941176474094391);
#474=CARTESIAN_POINT('',(-0.65625,0.9375,0.0));
#475=CARTESIAN_POINT('',(-0.65625,0.9375,0.25));
#476=CARTESIAN_POINT('',(-0.65625,0.9375,0.0));
#477=VECTOR('',#563,1.0);
#478=CARTESIAN_POINT('',(-1.21875,0.9375,0.25));
#479=AXIS2_PLACEMENT_3D('',#564,#565,#566);
#480=CARTESIAN_POINT('',(-1.21875,0.9375,0.0));
#481=CARTESIAN_POINT('',(-1.21875,0.9375,0.0));
#482=VECTOR('',#567,1.0);
#483=AXIS2_PLACEMENT_3D('',#568,#569,#570);
#484=COLOUR_RGB('',0.156862750649452,0.549019634723663,0.941176474094391);
#485=CARTESIAN_POINT('',(1.21875,0.9375,0.0));
#486=CARTESIAN_POINT('',(1.21875,0.9375,0.25));
#487=CARTESIAN_POINT('',(1.21875,0.9375,0.0));
#488=VECTOR('',#571,1.0);
#489=CARTESIAN_POINT('',(0.656249999999999,0.9375,0.25));
#490=AXIS2_PLACEMENT_3D('',#572,#573,#574);
#491=CARTESIAN_POINT('',(0.656249999999999,0.9375,0.0));
#492=CARTESIAN_POINT('',(0.656249999999999,0.9375,0.0));
#493=VECTOR('',#575,1.0);
#494=AXIS2_PLACEMENT_3D('',#576,#577,#578);
#495=COLOUR_RGB('',0.156862750649452,0.549019634723663,0.941176474094391);
#496=CARTESIAN_POINT('',(-0.656250000000001,-0.9375,0.0));
#497=CARTESIAN_POINT('',(-0.656250000000001,-0.9375,0.25));
#498=CARTESIAN_POINT('',(-0.656250000000001,-0.9375,0.0));
#499=VECTOR('',#579,1.0);
#500=CARTESIAN_POINT('',(-1.21875,-0.9375,0.25));
#501=AXIS2_PLACEMENT_3D('',#580,#581,#582);
#502=CARTESIAN_POINT('',(-1.21875,-0.9375,0.0));
#503=CARTESIAN_POINT('',(-1.21875,-0.9375,0.0));
#504=VECTOR('',#583,1.0);
#505=AXIS2_PLACEMENT_3D('',#584,#585,#586);
#506=COLOUR_RGB('',0.156862750649452,0.549019634723663,0.941176474094391);
#507=CARTESIAN_POINT('',(-1.75,1.75,0.25));
#508=CARTESIAN_POINT('',(1.75,1.75,0.25));
#509=CARTESIAN_POINT('',(-1.75,1.75,0.25));
#510=VECTOR('',#587,1.0);
#511=CARTESIAN_POINT('',(1.75,1.75,0.0));
#512=CARTESIAN_POINT('',(1.75,1.75,0.0));
#513=VECTOR('',#588,1.0);
#514=CARTESIAN_POINT('',(-1.75,1.75,0.0));
#515=CARTESIAN_POINT('',(-1.75,1.75,0.0));
#516=VECTOR('',#589,1.0);
#517=CARTESIAN_POINT('',(-1.75,1.75,0.0));
#518=VECTOR('',#590,1.0);
#519=COLOUR_RGB('',0.156862750649452,0.549019634723663,0.941176474094391);
#520=CARTESIAN_POINT('',(1.75,0.125,0.25));
#521=CARTESIAN_POINT('',(-0.125,-1.75,0.25));
#522=CARTESIAN_POINT('',(1.75,0.125,0.25));
#523=VECTOR('',#591,1.0);
#524=CARTESIAN_POINT('',(-0.125,-1.75,0.0));
#525=CARTESIAN_POINT('',(-0.125,-1.75,0.0));
#526=VECTOR('',#592,1.0);
#527=CARTESIAN_POINT('',(1.75,0.125,0.0));
#528=CARTESIAN_POINT('',(1.75,0.125,0.0));
#529=VECTOR('',#593,1.0);
#530=CARTESIAN_POINT('',(1.75,0.125,0.0));
#531=VECTOR('',#594,1.0);
#532=COLOUR_RGB('',0.156862750649452,0.549019634723663,0.941176474094391);
#533=AXIS2_PLACEMENT_3D('',#595,#596,#597);
#534=AXIS2_PLACEMENT_3D('',#598,#599,#600);
#535=COLOUR_RGB('',0.156862750649452,0.549019634723663,0.941176474094391);
#536=CARTESIAN_POINT('',(-1.75,-1.75,0.25));
#537=CARTESIAN_POINT('',(-1.75,-1.75,0.25));
#538=VECTOR('',#601,1.0);
#539=CARTESIAN_POINT('',(-1.75,-1.75,0.0));
#540=CARTESIAN_POINT('',(-1.75,-1.75,0.0));
#541=VECTOR('',#602,1.0);
#542=CARTESIAN_POINT('',(-1.75,-1.75,0.0));
#543=VECTOR('',#603,1.0);
#544=COLOUR_RGB('',0.156862750649452,0.549019634723663,0.941176474094391);
#545=CARTESIAN_POINT('',(1.75,1.75,0.25));
#546=VECTOR('',#604,1.0);
#547=CARTESIAN_POINT('',(1.75,1.75,0.0));
#548=VECTOR('',#605,1.0);
#549=COLOUR_RGB('',0.156862750649452,0.549019634723663,0.941176474094391);
#550=COLOUR_RGB('',0.156862750649452,0.549019634723663,0.941176474094391);
#551=CARTESIAN_POINT('',(-0.125,-1.75,0.25));
#552=VECTOR('',#606,1.0);
#553=CARTESIAN_POINT('',(-0.125,-1.75,0.0));
#554=VECTOR('',#607,1.0);
#555=COLOUR_RGB('',0.156862750649452,0.549019634723663,0.941176474094391);
#556=AXIS2_PLACEMENT_3D('',#608,#609,#610);
#557=AXIS2_PLACEMENT_3D('',#611,#612,#613);
#558=COLOUR_RGB('',0.156862750649452,0.549019634723663,0.941176474094391);
#559=AXIS2_PLACEMENT_3D('',#614,#615,#616);
#560=COLOUR_RGB('',0.156862750649452,0.549019634723663,0.941176474094391);
#561=AXIS2_PLACEMENT_3D('',#617,#618,#619);
#562=COLOUR_RGB('',0.156862750649452,0.549019634723663,0.941176474094391);
#563=DIRECTION('',(-0.0,-0.0,1.0));
#564=CARTESIAN_POINT('',(-0.9375,0.9375,0.25));
#565=DIRECTION('',(0.0,0.0,1.0));
#566=DIRECTION('',(1.0,0.0,0.0));
#567=DIRECTION('',(-0.0,0.0,-1.0));
#568=CARTESIAN_POINT('',(-0.9375,0.9375,0.0));
#569=DIRECTION('',(0.0,0.0,1.0));
#570=DIRECTION('',(1.0,0.0,-0.0));
#571=DIRECTION('',(-0.0,-0.0,1.0));
#572=CARTESIAN_POINT('',(0.937499999999999,0.9375,0.25));
#573=DIRECTION('',(0.0,0.0,1.0));
#574=DIRECTION('',(1.0,0.0,0.0));
#575=DIRECTION('',(-0.0,0.0,-1.0));
#576=CARTESIAN_POINT('',(0.937499999999999,0.9375,0.0));
#577=DIRECTION('',(0.0,0.0,1.0));
#578=DIRECTION('',(1.0,0.0,-0.0));
#579=DIRECTION('',(-0.0,-0.0,1.0));
#580=CARTESIAN_POINT('',(-0.937500000000001,-0.9375,0.25));
#581=DIRECTION('',(0.0,0.0,1.0));
#582=DIRECTION('',(1.0,0.0,0.0));
#583=DIRECTION('',(-0.0,0.0,-1.0));
#584=CARTESIAN_POINT('',(-0.937500000000001,-0.9375,0.0));
#585=DIRECTION('',(0.0,0.0,1.0));
#586=DIRECTION('',(1.0,0.0,-0.0));
#587=DIRECTION('',(1.0,0.0,0.0));
#588=DIRECTION('',(0.0,0.0,1.0));
#589=DIRECTION('',(1.0,0.0,0.0));
#590=DIRECTION('',(0.0,0.0,1.0));
#591=DIRECTION('',(-0.707106781186548,-0.707106781186547,0.0));
#592=DIRECTION('',(0.0,0.0,1.0));
#593=DIRECTION('',(-0.707106781186548,-0.707106781186547,0.0));
#594=DIRECTION('',(0.0,0.0,1.0));
#595=CARTESIAN_POINT('',(0.937499999999999,0.9375,0.0));
#596=DIRECTION('',(0.0,0.0,1.0));
#597=DIRECTION('',(1.0,0.0,-0.0));
#598=CARTESIAN_POINT('',(0.937499999999999,0.9375,0.25));
#599=DIRECTION('',(0.0,0.0,1.0));
#600=DIRECTION('',(1.0,0.0,0.0));
#601=DIRECTION('',(0.0,1.0,0.0));
#602=DIRECTION('',(0.0,1.0,0.0));
#603=DIRECTION('',(0.0,0.0,1.0));
#604=DIRECTION('',(-2.73285667600039E-16,-1.0,0.0));
#605=DIRECTION('',(-2.73285667600039E-16,-1.0,0.0));
#606=DIRECTION('',(-1.0,4.09928501400058E-16,0.0));
#607=DIRECTION('',(-1.0,4.09928501400058E-16,0.0));
#608=CARTESIAN_POINT('',(-0.937500000000001,-0.9375,0.0));
#609=DIRECTION('',(0.0,0.0,1.0));
#610=DIRECTION('',(1.0,0.0,-0.0));
#611=CARTESIAN_POINT('',(-0.9375,0.9375,0.0));
#612=DIRECTION('',(0.0,0.0,1.0));
#613=DIRECTION('',(1.0,0.0,-0.0));
#614=CARTESIAN_POINT('',(-0.9375,0.9375,0.25));
#615=DIRECTION('',(0.0,0.0,1.0));
#616=DIRECTION('',(1.0,0.0,0.0));
#617=CARTESIAN_POINT('',(-0.937500000000001,-0.9375,0.25));
#618=DIRECTION('',(0.0,0.0,1.0));
#619=DIRECTION('',(1.0,0.0,0.0));
ENDSEC;
END-ISO-10303-21;
