ISO-10303-21;
HEADER;
FILE_DESCRIPTION(('TurboCAD Mac Pro'),'Build 980');
FILE_NAME('P1380.stp','  ',(''),(''),'ACIS Interop','IMSI','TurboCAD Mac Pro BY IMSI, INCORPORATED');
FILE_SCHEMA(('automotive_design'));
ENDSEC;
DATA;
#1=MECHANICAL_DESIGN_GEOMETRIC_PRESENTATION_REPRESENTATION(' ',(#14,#15,#16,#17,#18,#19,#20,#21,#22,#23,#24,#25,#26,#27,#28,#29,#30,#31,#32,#33),#10);
#2=PRODUCT_DEFINITION_CONTEXT('',#34,'design');
#3=APPLICATION_PROTOCOL_DEFINITION('INTERNATIONAL STANDARD','automotive_design',1994,#34);
#4=PRODUCT_CATEGORY_RELATIONSHIP('NONE','NONE',#35,#36);
#5=SHAPE_DEFINITION_REPRESENTATION(#37,#38);
#6=PRODUCT_DEFINITION_CONTEXT('',#39,'design');
#7=APPLICATION_PROTOCOL_DEFINITION('INTERNATIONAL STANDARD','automotive_design',1994,#39);
#8=PRODUCT_CATEGORY_RELATIONSHIP('NONE','NONE',#40,#41);
#9=SHAPE_DEFINITION_REPRESENTATION(#42,#43);
#10= (GEOMETRIC_REPRESENTATION_CONTEXT(3)GLOBAL_UNCERTAINTY_ASSIGNED_CONTEXT((#46))GLOBAL_UNIT_ASSIGNED_CONTEXT((#48,#49,#50))REPRESENTATION_CONTEXT('NONE','WORKSPACE'));
#14=STYLED_ITEM('',(#52),#53);
#15=STYLED_ITEM('',(#54),#55);
#16=STYLED_ITEM('',(#56),#57);
#17=STYLED_ITEM('',(#58),#59);
#18=STYLED_ITEM('',(#60),#61);
#19=STYLED_ITEM('',(#62),#63);
#20=STYLED_ITEM('',(#64),#65);
#21=STYLED_ITEM('',(#66),#67);
#22=STYLED_ITEM('',(#68),#69);
#23=STYLED_ITEM('',(#70),#71);
#24=STYLED_ITEM('',(#72),#73);
#25=STYLED_ITEM('',(#74),#75);
#26=STYLED_ITEM('',(#76),#77);
#27=STYLED_ITEM('',(#78),#79);
#28=STYLED_ITEM('',(#80),#81);
#29=STYLED_ITEM('',(#82),#83);
#30=STYLED_ITEM('',(#84),#85);
#31=STYLED_ITEM('',(#86),#87);
#32=STYLED_ITEM('',(#88),#89);
#33=STYLED_ITEM('',(#90),#91);
#34=APPLICATION_CONTEXT(' ');
#35=PRODUCT_CATEGORY('part','NONE');
#36=PRODUCT_RELATED_PRODUCT_CATEGORY('detail',' ',(#92));
#37=PRODUCT_DEFINITION_SHAPE('NONE','NONE',#93);
#38=ADVANCED_BREP_SHAPE_REPRESENTATION('1',(#89,#94),#10);
#39=APPLICATION_CONTEXT(' ');
#40=PRODUCT_CATEGORY('part','NONE');
#41=PRODUCT_RELATED_PRODUCT_CATEGORY('detail',' ',(#95));
#42=PRODUCT_DEFINITION_SHAPE('NONE','NONE',#96);
#43=GEOMETRICALLY_BOUNDED_SURFACE_SHAPE_REPRESENTATION('2',(#97,#98),#10);
#46=UNCERTAINTY_MEASURE_WITH_UNIT(LENGTH_MEASURE(1.0E-06),#48,'','');
#48= (CONVERSION_BASED_UNIT('INCH',#101)LENGTH_UNIT()NAMED_UNIT(#104));
#49= (NAMED_UNIT(#106)PLANE_ANGLE_UNIT()SI_UNIT($,.RADIAN.));
#50= (NAMED_UNIT(#106)SOLID_ANGLE_UNIT()SI_UNIT($,.STERADIAN.));
#52=PRESENTATION_STYLE_ASSIGNMENT((#112));
#53=ADVANCED_FACE('',(#113),#114,.F.);
#54=PRESENTATION_STYLE_ASSIGNMENT((#115));
#55=ADVANCED_FACE('',(#116),#117,.T.);
#56=PRESENTATION_STYLE_ASSIGNMENT((#118));
#57=ADVANCED_FACE('',(#119),#120,.F.);
#58=PRESENTATION_STYLE_ASSIGNMENT((#121));
#59=ADVANCED_FACE('',(#122),#123,.F.);
#60=PRESENTATION_STYLE_ASSIGNMENT((#124));
#61=ADVANCED_FACE('',(#125),#126,.F.);
#62=PRESENTATION_STYLE_ASSIGNMENT((#127));
#63=ADVANCED_FACE('',(#128),#129,.F.);
#64=PRESENTATION_STYLE_ASSIGNMENT((#130));
#65=ADVANCED_FACE('',(#131),#132,.F.);
#66=PRESENTATION_STYLE_ASSIGNMENT((#133));
#67=TRIMMED_CURVE('',#134,(PARAMETER_VALUE(0.0)),(PARAMETER_VALUE(6.28318530717959)),.T.,.UNSPECIFIED.);
#68=PRESENTATION_STYLE_ASSIGNMENT((#135));
#69=TRIMMED_CURVE('',#136,(PARAMETER_VALUE(0.0)),(PARAMETER_VALUE(6.28318530717959)),.T.,.UNSPECIFIED.);
#70=PRESENTATION_STYLE_ASSIGNMENT((#137));
#71=ADVANCED_FACE('',(#138),#139,.T.);
#72=PRESENTATION_STYLE_ASSIGNMENT((#140));
#73=ADVANCED_FACE('',(#141),#142,.T.);
#74=PRESENTATION_STYLE_ASSIGNMENT((#143));
#75=ADVANCED_FACE('',(#144),#145,.T.);
#76=PRESENTATION_STYLE_ASSIGNMENT((#146));
#77=ADVANCED_FACE('',(#147,#148,#149,#150,#151),#152,.F.);
#78=PRESENTATION_STYLE_ASSIGNMENT((#153));
#79=ADVANCED_FACE('',(#154),#155,.T.);
#80=PRESENTATION_STYLE_ASSIGNMENT((#156));
#81=ADVANCED_FACE('',(#157),#158,.F.);
#82=PRESENTATION_STYLE_ASSIGNMENT((#159));
#83=TRIMMED_CURVE('',#160,(PARAMETER_VALUE(0.0)),(PARAMETER_VALUE(6.28318530717959)),.T.,.UNSPECIFIED.);
#84=PRESENTATION_STYLE_ASSIGNMENT((#161));
#85=ADVANCED_FACE('',(#162,#163,#164,#165,#166),#167,.T.);
#86=PRESENTATION_STYLE_ASSIGNMENT((#168));
#87=ADVANCED_FACE('',(#169),#170,.F.);
#88=PRESENTATION_STYLE_ASSIGNMENT((#171));
#89=MANIFOLD_SOLID_BREP('1',#172);
#90=PRESENTATION_STYLE_ASSIGNMENT((#173));
#91=TRIMMED_CURVE('',#174,(PARAMETER_VALUE(0.0)),(PARAMETER_VALUE(6.28318530717959)),.T.,.UNSPECIFIED.);
#92=PRODUCT('1','1','PART-1-DESC',(#175));
#93=PRODUCT_DEFINITION('NONE','NONE',#176,#2);
#94=AXIS2_PLACEMENT_3D('',#177,#178,#179);
#95=PRODUCT('2','2','PART-2-DESC',(#180));
#96=PRODUCT_DEFINITION('NONE','NONE',#181,#6);
#97=GEOMETRIC_SET('2',(#182,#183,#184,#185));
#98=AXIS2_PLACEMENT_3D('',#186,#187,#188);
#101=LENGTH_MEASURE_WITH_UNIT(LENGTH_MEASURE(25.4),#189);
#104=DIMENSIONAL_EXPONENTS(1.0,0.0,0.0,0.0,0.0,0.0,0.0);
#106=DIMENSIONAL_EXPONENTS(0.0,0.0,0.0,0.0,0.0,0.0,0.0);
#112=SURFACE_STYLE_USAGE(.BOTH.,#190);
#113=FACE_OUTER_BOUND('',#191,.T.);
#114=CYLINDRICAL_SURFACE('',#192,0.28125);
#115=SURFACE_STYLE_USAGE(.BOTH.,#193);
#116=FACE_OUTER_BOUND('',#194,.T.);
#117=PLANE('',#195);
#118=SURFACE_STYLE_USAGE(.BOTH.,#196);
#119=FACE_OUTER_BOUND('',#197,.T.);
#120=CYLINDRICAL_SURFACE('',#198,0.28125);
#121=SURFACE_STYLE_USAGE(.BOTH.,#199);
#122=FACE_OUTER_BOUND('',#200,.T.);
#123=CYLINDRICAL_SURFACE('',#201,0.28125);
#124=SURFACE_STYLE_USAGE(.BOTH.,#202);
#125=FACE_OUTER_BOUND('',#203,.T.);
#126=CYLINDRICAL_SURFACE('',#204,0.28125);
#127=SURFACE_STYLE_USAGE(.BOTH.,#205);
#128=FACE_OUTER_BOUND('',#206,.T.);
#129=CYLINDRICAL_SURFACE('',#207,0.28125);
#130=SURFACE_STYLE_USAGE(.BOTH.,#208);
#131=FACE_OUTER_BOUND('',#209,.T.);
#132=CYLINDRICAL_SURFACE('',#210,0.28125);
#133=CURVE_STYLE('',#211,POSITIVE_LENGTH_MEASURE(1.0E-06),#212);
#134=CIRCLE('',#213,0.28125);
#135=CURVE_STYLE('',#214,POSITIVE_LENGTH_MEASURE(1.0E-06),#215);
#136=CIRCLE('',#216,0.28125);
#137=SURFACE_STYLE_USAGE(.BOTH.,#217);
#138=FACE_OUTER_BOUND('',#218,.T.);
#139=PLANE('',#219);
#140=SURFACE_STYLE_USAGE(.BOTH.,#220);
#141=FACE_OUTER_BOUND('',#221,.T.);
#142=PLANE('',#222);
#143=SURFACE_STYLE_USAGE(.BOTH.,#223);
#144=FACE_OUTER_BOUND('',#224,.T.);
#145=PLANE('',#225);
#146=SURFACE_STYLE_USAGE(.BOTH.,#226);
#147=FACE_BOUND('',#227,.T.);
#148=FACE_BOUND('',#228,.T.);
#149=FACE_BOUND('',#229,.T.);
#150=FACE_BOUND('',#230,.T.);
#151=FACE_OUTER_BOUND('',#231,.T.);
#152=PLANE('',#232);
#153=SURFACE_STYLE_USAGE(.BOTH.,#233);
#154=FACE_OUTER_BOUND('',#234,.T.);
#155=PLANE('',#235);
#156=SURFACE_STYLE_USAGE(.BOTH.,#236);
#157=FACE_OUTER_BOUND('',#237,.T.);
#158=CYLINDRICAL_SURFACE('',#238,0.28125);
#159=CURVE_STYLE('',#239,POSITIVE_LENGTH_MEASURE(1.0E-06),#240);
#160=CIRCLE('',#241,0.28125);
#161=SURFACE_STYLE_USAGE(.BOTH.,#242);
#162=FACE_BOUND('',#243,.T.);
#163=FACE_BOUND('',#244,.T.);
#164=FACE_BOUND('',#245,.T.);
#165=FACE_BOUND('',#246,.T.);
#166=FACE_OUTER_BOUND('',#247,.T.);
#167=PLANE('',#248);
#168=SURFACE_STYLE_USAGE(.BOTH.,#249);
#169=FACE_OUTER_BOUND('',#250,.T.);
#170=CYLINDRICAL_SURFACE('',#251,0.28125);
#171=SURFACE_STYLE_USAGE(.BOTH.,#252);
#172=CLOSED_SHELL('',(#61,#63,#81,#87,#79,#75,#71,#73,#55,#53,#59,#57,#65,#85,#77));
#173=CURVE_STYLE('',#253,POSITIVE_LENGTH_MEASURE(1.0E-06),#254);
#174=CIRCLE('',#255,0.28125);
#175=PRODUCT_CONTEXT('',#34,'mechanical');
#176=PRODUCT_DEFINITION_FORMATION_WITH_SPECIFIED_SOURCE(' ','NONE',#92,.NOT_KNOWN.);
#177=CARTESIAN_POINT('',(0.0,0.0,0.0));
#178=DIRECTION('',(0.0,0.0,1.0));
#179=DIRECTION('',(1.0,0.0,0.0));
#180=PRODUCT_CONTEXT('',#39,'mechanical');
#181=PRODUCT_DEFINITION_FORMATION_WITH_SPECIFIED_SOURCE(' ','NONE',#95,.NOT_KNOWN.);
#182=COMPOSITE_CURVE('',(#256),.U.);
#183=COMPOSITE_CURVE('',(#257),.U.);
#184=COMPOSITE_CURVE('',(#258),.U.);
#185=COMPOSITE_CURVE('',(#259),.U.);
#186=CARTESIAN_POINT('',(0.0,0.0,0.0));
#187=DIRECTION('',(0.0,0.0,1.0));
#188=DIRECTION('',(1.0,0.0,0.0));
#189= (NAMED_UNIT(#104)LENGTH_UNIT()SI_UNIT(.MILLI.,.METRE.));
#190=SURFACE_SIDE_STYLE('',(#261));
#191=EDGE_LOOP('',(#262,#263,#264,#265));
#192=AXIS2_PLACEMENT_3D('',#266,#267,#268);
#193=SURFACE_SIDE_STYLE('',(#269));
#194=EDGE_LOOP('',(#270,#271,#272,#273));
#195=AXIS2_PLACEMENT_3D('',#274,#275,#276);
#196=SURFACE_SIDE_STYLE('',(#277));
#197=EDGE_LOOP('',(#278,#279,#280,#281));
#198=AXIS2_PLACEMENT_3D('',#282,#283,#284);
#199=SURFACE_SIDE_STYLE('',(#285));
#200=EDGE_LOOP('',(#286,#287,#288,#289));
#201=AXIS2_PLACEMENT_3D('',#290,#291,#292);
#202=SURFACE_SIDE_STYLE('',(#293));
#203=EDGE_LOOP('',(#294,#295,#296,#297));
#204=AXIS2_PLACEMENT_3D('',#298,#299,#300);
#205=SURFACE_SIDE_STYLE('',(#301));
#206=EDGE_LOOP('',(#302,#303,#304,#305));
#207=AXIS2_PLACEMENT_3D('',#306,#307,#308);
#208=SURFACE_SIDE_STYLE('',(#309));
#209=EDGE_LOOP('',(#310,#311,#312,#313));
#210=AXIS2_PLACEMENT_3D('',#314,#315,#316);
#211=DRAUGHTING_PRE_DEFINED_CURVE_FONT('continuous');
#212=COLOUR_RGB('',1.0,1.0,1.0);
#213=AXIS2_PLACEMENT_3D('',#317,#318,#319);
#214=DRAUGHTING_PRE_DEFINED_CURVE_FONT('continuous');
#215=COLOUR_RGB('',1.0,1.0,1.0);
#216=AXIS2_PLACEMENT_3D('',#320,#321,#322);
#217=SURFACE_SIDE_STYLE('',(#323));
#218=EDGE_LOOP('',(#324,#325,#326,#327));
#219=AXIS2_PLACEMENT_3D('',#328,#329,#330);
#220=SURFACE_SIDE_STYLE('',(#331));
#221=EDGE_LOOP('',(#332,#333,#334,#335));
#222=AXIS2_PLACEMENT_3D('',#336,#337,#338);
#223=SURFACE_SIDE_STYLE('',(#339));
#224=EDGE_LOOP('',(#340,#341,#342,#343));
#225=AXIS2_PLACEMENT_3D('',#344,#345,#346);
#226=SURFACE_SIDE_STYLE('',(#347));
#227=EDGE_LOOP('',(#348,#349));
#228=EDGE_LOOP('',(#350,#351));
#229=EDGE_LOOP('',(#352,#353));
#230=EDGE_LOOP('',(#354,#355));
#231=EDGE_LOOP('',(#356,#357,#358,#359,#360));
#232=AXIS2_PLACEMENT_3D('',#361,#362,#363);
#233=SURFACE_SIDE_STYLE('',(#364));
#234=EDGE_LOOP('',(#365,#366,#367,#368));
#235=AXIS2_PLACEMENT_3D('',#369,#370,#371);
#236=SURFACE_SIDE_STYLE('',(#372));
#237=EDGE_LOOP('',(#373,#374,#375,#376));
#238=AXIS2_PLACEMENT_3D('',#377,#378,#379);
#239=DRAUGHTING_PRE_DEFINED_CURVE_FONT('continuous');
#240=COLOUR_RGB('',1.0,1.0,1.0);
#241=AXIS2_PLACEMENT_3D('',#380,#381,#382);
#242=SURFACE_SIDE_STYLE('',(#383));
#243=EDGE_LOOP('',(#384,#385));
#244=EDGE_LOOP('',(#386,#387));
#245=EDGE_LOOP('',(#388,#389));
#246=EDGE_LOOP('',(#390,#391));
#247=EDGE_LOOP('',(#392,#393,#394,#395,#396));
#248=AXIS2_PLACEMENT_3D('',#397,#398,#399);
#249=SURFACE_SIDE_STYLE('',(#400));
#250=EDGE_LOOP('',(#401,#402,#403,#404));
#251=AXIS2_PLACEMENT_3D('',#405,#406,#407);
#252=SURFACE_SIDE_STYLE('',(#408));
#253=DRAUGHTING_PRE_DEFINED_CURVE_FONT('continuous');
#254=COLOUR_RGB('',1.0,1.0,1.0);
#255=AXIS2_PLACEMENT_3D('',#409,#410,#411);
#256=COMPOSITE_CURVE_SEGMENT('',.CONTINUOUS.,.T.,#91);
#257=COMPOSITE_CURVE_SEGMENT('',.CONTINUOUS.,.T.,#67);
#258=COMPOSITE_CURVE_SEGMENT('',.CONTINUOUS.,.T.,#83);
#259=COMPOSITE_CURVE_SEGMENT('',.CONTINUOUS.,.T.,#69);
#261=SURFACE_STYLE_FILL_AREA(#412);
#262=ORIENTED_EDGE('',*,*,#413,.T.);
#263=ORIENTED_EDGE('',*,*,#414,.T.);
#264=ORIENTED_EDGE('',*,*,#415,.T.);
#265=ORIENTED_EDGE('',*,*,#416,.F.);
#266=CARTESIAN_POINT('',(2.6875,-0.8125,0.0));
#267=DIRECTION('',(-0.0,-0.0,-1.0));
#268=DIRECTION('',(1.0,0.0,0.0));
#269=SURFACE_STYLE_FILL_AREA(#417);
#270=ORIENTED_EDGE('',*,*,#418,.T.);
#271=ORIENTED_EDGE('',*,*,#419,.F.);
#272=ORIENTED_EDGE('',*,*,#420,.F.);
#273=ORIENTED_EDGE('',*,*,#421,.T.);
#274=CARTESIAN_POINT('',(3.5,-0.8125,0.0));
#275=DIRECTION('',(1.0,-2.73285667600039E-16,0.0));
#276=DIRECTION('',(2.73285667600039E-16,1.0,-0.0));
#277=SURFACE_STYLE_FILL_AREA(#422);
#278=ORIENTED_EDGE('',*,*,#423,.T.);
#279=ORIENTED_EDGE('',*,*,#424,.T.);
#280=ORIENTED_EDGE('',*,*,#425,.T.);
#281=ORIENTED_EDGE('',*,*,#426,.F.);
#282=CARTESIAN_POINT('',(0.8125,-0.8125,0.0));
#283=DIRECTION('',(-0.0,-0.0,-1.0));
#284=DIRECTION('',(1.0,0.0,0.0));
#285=SURFACE_STYLE_FILL_AREA(#427);
#286=ORIENTED_EDGE('',*,*,#428,.T.);
#287=ORIENTED_EDGE('',*,*,#429,.T.);
#288=ORIENTED_EDGE('',*,*,#430,.T.);
#289=ORIENTED_EDGE('',*,*,#431,.F.);
#290=CARTESIAN_POINT('',(0.812499999999999,-2.6875,0.0));
#291=DIRECTION('',(-0.0,-0.0,-1.0));
#292=DIRECTION('',(1.0,0.0,0.0));
#293=SURFACE_STYLE_FILL_AREA(#432);
#294=ORIENTED_EDGE('',*,*,#433,.F.);
#295=ORIENTED_EDGE('',*,*,#434,.F.);
#296=ORIENTED_EDGE('',*,*,#435,.F.);
#297=ORIENTED_EDGE('',*,*,#436,.T.);
#298=CARTESIAN_POINT('',(0.812499999999999,-4.5625,0.0));
#299=DIRECTION('',(-0.0,-0.0,-1.0));
#300=DIRECTION('',(1.0,0.0,0.0));
#301=SURFACE_STYLE_FILL_AREA(#437);
#302=ORIENTED_EDGE('',*,*,#423,.F.);
#303=ORIENTED_EDGE('',*,*,#438,.F.);
#304=ORIENTED_EDGE('',*,*,#425,.F.);
#305=ORIENTED_EDGE('',*,*,#439,.T.);
#306=CARTESIAN_POINT('',(0.8125,-0.8125,0.0));
#307=DIRECTION('',(-0.0,-0.0,-1.0));
#308=DIRECTION('',(1.0,0.0,0.0));
#309=SURFACE_STYLE_FILL_AREA(#440);
#310=ORIENTED_EDGE('',*,*,#433,.T.);
#311=ORIENTED_EDGE('',*,*,#441,.T.);
#312=ORIENTED_EDGE('',*,*,#435,.T.);
#313=ORIENTED_EDGE('',*,*,#442,.F.);
#314=CARTESIAN_POINT('',(0.812499999999999,-4.5625,0.0));
#315=DIRECTION('',(-0.0,-0.0,-1.0));
#316=DIRECTION('',(1.0,0.0,0.0));
#317=CARTESIAN_POINT('',(0.812499999999999,-2.6875,0.0));
#318=DIRECTION('',(0.0,0.0,1.0));
#319=DIRECTION('',(1.0,0.0,-0.0));
#320=CARTESIAN_POINT('',(0.812499999999999,-4.5625,0.0));
#321=DIRECTION('',(0.0,0.0,1.0));
#322=DIRECTION('',(1.0,0.0,-0.0));
#323=SURFACE_STYLE_FILL_AREA(#443);
#324=ORIENTED_EDGE('',*,*,#444,.T.);
#325=ORIENTED_EDGE('',*,*,#445,.F.);
#326=ORIENTED_EDGE('',*,*,#446,.F.);
#327=ORIENTED_EDGE('',*,*,#447,.T.);
#328=CARTESIAN_POINT('',(-2.22044604925031E-16,-2.6875,0.0));
#329=DIRECTION('',(-1.0,8.26212483441977E-17,0.0));
#330=DIRECTION('',(-8.26212483441977E-17,-1.0,-0.0));
#331=SURFACE_STYLE_FILL_AREA(#448);
#332=ORIENTED_EDGE('',*,*,#449,.T.);
#333=ORIENTED_EDGE('',*,*,#421,.F.);
#334=ORIENTED_EDGE('',*,*,#450,.F.);
#335=ORIENTED_EDGE('',*,*,#445,.T.);
#336=CARTESIAN_POINT('',(1.75,0.0,0.0));
#337=DIRECTION('',(0.0,1.0,0.0));
#338=DIRECTION('',(-1.0,0.0,0.0));
#339=SURFACE_STYLE_FILL_AREA(#451);
#340=ORIENTED_EDGE('',*,*,#452,.T.);
#341=ORIENTED_EDGE('',*,*,#447,.F.);
#342=ORIENTED_EDGE('',*,*,#453,.F.);
#343=ORIENTED_EDGE('',*,*,#454,.T.);
#344=CARTESIAN_POINT('',(0.8125,-5.375,0.0));
#345=DIRECTION('',(-5.46571335200077E-16,-1.0,0.0));
#346=DIRECTION('',(1.0,-5.46571335200077E-16,-0.0));
#347=SURFACE_STYLE_FILL_AREA(#455);
#348=ORIENTED_EDGE('',*,*,#442,.T.);
#349=ORIENTED_EDGE('',*,*,#434,.T.);
#350=ORIENTED_EDGE('',*,*,#426,.T.);
#351=ORIENTED_EDGE('',*,*,#438,.T.);
#352=ORIENTED_EDGE('',*,*,#431,.T.);
#353=ORIENTED_EDGE('',*,*,#456,.T.);
#354=ORIENTED_EDGE('',*,*,#416,.T.);
#355=ORIENTED_EDGE('',*,*,#457,.T.);
#356=ORIENTED_EDGE('',*,*,#420,.T.);
#357=ORIENTED_EDGE('',*,*,#458,.T.);
#358=ORIENTED_EDGE('',*,*,#453,.T.);
#359=ORIENTED_EDGE('',*,*,#446,.T.);
#360=ORIENTED_EDGE('',*,*,#450,.T.);
#361=CARTESIAN_POINT('',(1.46322867232838,-2.40072867232838,0.0));
#362=DIRECTION('',(0.0,0.0,1.0));
#363=DIRECTION('',(1.0,0.0,0.0));
#364=SURFACE_STYLE_FILL_AREA(#459);
#365=ORIENTED_EDGE('',*,*,#460,.T.);
#366=ORIENTED_EDGE('',*,*,#454,.F.);
#367=ORIENTED_EDGE('',*,*,#458,.F.);
#368=ORIENTED_EDGE('',*,*,#419,.T.);
#369=CARTESIAN_POINT('',(2.5625,-3.5,0.0));
#370=DIRECTION('',(0.894427190999916,-0.447213595499958,0.0));
#371=DIRECTION('',(0.447213595499958,0.894427190999916,-0.0));
#372=SURFACE_STYLE_FILL_AREA(#461);
#373=ORIENTED_EDGE('',*,*,#428,.F.);
#374=ORIENTED_EDGE('',*,*,#456,.F.);
#375=ORIENTED_EDGE('',*,*,#430,.F.);
#376=ORIENTED_EDGE('',*,*,#462,.T.);
#377=CARTESIAN_POINT('',(0.812499999999999,-2.6875,0.0));
#378=DIRECTION('',(-0.0,-0.0,-1.0));
#379=DIRECTION('',(1.0,0.0,0.0));
#380=CARTESIAN_POINT('',(2.6875,-0.8125,0.0));
#381=DIRECTION('',(0.0,0.0,1.0));
#382=DIRECTION('',(1.0,-3.94745964311167E-16,0.0));
#383=SURFACE_STYLE_FILL_AREA(#463);
#384=ORIENTED_EDGE('',*,*,#441,.F.);
#385=ORIENTED_EDGE('',*,*,#436,.F.);
#386=ORIENTED_EDGE('',*,*,#424,.F.);
#387=ORIENTED_EDGE('',*,*,#439,.F.);
#388=ORIENTED_EDGE('',*,*,#429,.F.);
#389=ORIENTED_EDGE('',*,*,#462,.F.);
#390=ORIENTED_EDGE('',*,*,#414,.F.);
#391=ORIENTED_EDGE('',*,*,#464,.F.);
#392=ORIENTED_EDGE('',*,*,#460,.F.);
#393=ORIENTED_EDGE('',*,*,#418,.F.);
#394=ORIENTED_EDGE('',*,*,#449,.F.);
#395=ORIENTED_EDGE('',*,*,#444,.F.);
#396=ORIENTED_EDGE('',*,*,#452,.F.);
#397=CARTESIAN_POINT('',(1.46322867232838,-2.40072867232838,0.25));
#398=DIRECTION('',(0.0,0.0,1.0));
#399=DIRECTION('',(1.0,0.0,0.0));
#400=SURFACE_STYLE_FILL_AREA(#465);
#401=ORIENTED_EDGE('',*,*,#413,.F.);
#402=ORIENTED_EDGE('',*,*,#457,.F.);
#403=ORIENTED_EDGE('',*,*,#415,.F.);
#404=ORIENTED_EDGE('',*,*,#464,.T.);
#405=CARTESIAN_POINT('',(2.6875,-0.8125,0.0));
#406=DIRECTION('',(-0.0,-0.0,-1.0));
#407=DIRECTION('',(1.0,0.0,0.0));
#408=SURFACE_STYLE_FILL_AREA(#466);
#409=CARTESIAN_POINT('',(0.8125,-0.8125,0.0));
#410=DIRECTION('',(0.0,0.0,1.0));
#411=DIRECTION('',(1.0,-3.94745964311167E-16,0.0));
#412=FILL_AREA_STYLE('',(#467));
#413=EDGE_CURVE('',#468,#469,#470,.T.);
#414=EDGE_CURVE('',#469,#471,#472,.T.);
#415=EDGE_CURVE('',#471,#473,#474,.T.);
#416=EDGE_CURVE('',#468,#473,#475,.T.);
#417=FILL_AREA_STYLE('',(#476));
#418=EDGE_CURVE('',#477,#478,#479,.T.);
#419=EDGE_CURVE('',#480,#478,#481,.T.);
#420=EDGE_CURVE('',#482,#480,#483,.T.);
#421=EDGE_CURVE('',#482,#477,#484,.T.);
#422=FILL_AREA_STYLE('',(#485));
#423=EDGE_CURVE('',#486,#487,#488,.T.);
#424=EDGE_CURVE('',#487,#489,#490,.T.);
#425=EDGE_CURVE('',#489,#491,#492,.T.);
#426=EDGE_CURVE('',#486,#491,#493,.T.);
#427=FILL_AREA_STYLE('',(#494));
#428=EDGE_CURVE('',#495,#496,#497,.T.);
#429=EDGE_CURVE('',#496,#498,#499,.T.);
#430=EDGE_CURVE('',#498,#500,#501,.T.);
#431=EDGE_CURVE('',#495,#500,#502,.T.);
#432=FILL_AREA_STYLE('',(#503));
#433=EDGE_CURVE('',#504,#505,#506,.T.);
#434=EDGE_CURVE('',#507,#504,#508,.T.);
#435=EDGE_CURVE('',#509,#507,#510,.T.);
#436=EDGE_CURVE('',#509,#505,#511,.T.);
#437=FILL_AREA_STYLE('',(#512));
#438=EDGE_CURVE('',#491,#486,#513,.T.);
#439=EDGE_CURVE('',#489,#487,#514,.T.);
#440=FILL_AREA_STYLE('',(#515));
#441=EDGE_CURVE('',#505,#509,#516,.T.);
#442=EDGE_CURVE('',#504,#507,#517,.T.);
#443=FILL_AREA_STYLE('',(#518));
#444=EDGE_CURVE('',#519,#520,#521,.T.);
#445=EDGE_CURVE('',#522,#520,#523,.T.);
#446=EDGE_CURVE('',#524,#522,#525,.T.);
#447=EDGE_CURVE('',#524,#519,#526,.T.);
#448=FILL_AREA_STYLE('',(#527));
#449=EDGE_CURVE('',#520,#477,#528,.T.);
#450=EDGE_CURVE('',#522,#482,#529,.T.);
#451=FILL_AREA_STYLE('',(#530));
#452=EDGE_CURVE('',#531,#519,#532,.T.);
#453=EDGE_CURVE('',#533,#524,#534,.T.);
#454=EDGE_CURVE('',#533,#531,#535,.T.);
#455=FILL_AREA_STYLE('',(#536));
#456=EDGE_CURVE('',#500,#495,#537,.T.);
#457=EDGE_CURVE('',#473,#468,#538,.T.);
#458=EDGE_CURVE('',#480,#533,#539,.T.);
#459=FILL_AREA_STYLE('',(#540));
#460=EDGE_CURVE('',#478,#531,#541,.T.);
#461=FILL_AREA_STYLE('',(#542));
#462=EDGE_CURVE('',#498,#496,#543,.T.);
#463=FILL_AREA_STYLE('',(#544));
#464=EDGE_CURVE('',#471,#469,#545,.T.);
#465=FILL_AREA_STYLE('',(#546));
#466=FILL_AREA_STYLE('',(#547));
#467=FILL_AREA_STYLE_COLOUR('',#548);
#468=VERTEX_POINT('',#549);
#469=VERTEX_POINT('',#550);
#470=LINE('',#551,#552);
#471=VERTEX_POINT('',#553);
#472=CIRCLE('',#554,0.28125);
#473=VERTEX_POINT('',#555);
#474=LINE('',#556,#557);
#475=CIRCLE('',#558,0.28125);
#476=FILL_AREA_STYLE_COLOUR('',#559);
#477=VERTEX_POINT('',#560);
#478=VERTEX_POINT('',#561);
#479=LINE('',#562,#563);
#480=VERTEX_POINT('',#564);
#481=LINE('',#565,#566);
#482=VERTEX_POINT('',#567);
#483=LINE('',#568,#569);
#484=LINE('',#570,#571);
#485=FILL_AREA_STYLE_COLOUR('',#572);
#486=VERTEX_POINT('',#573);
#487=VERTEX_POINT('',#574);
#488=LINE('',#575,#576);
#489=VERTEX_POINT('',#577);
#490=CIRCLE('',#578,0.28125);
#491=VERTEX_POINT('',#579);
#492=LINE('',#580,#581);
#493=CIRCLE('',#582,0.28125);
#494=FILL_AREA_STYLE_COLOUR('',#583);
#495=VERTEX_POINT('',#584);
#496=VERTEX_POINT('',#585);
#497=LINE('',#586,#587);
#498=VERTEX_POINT('',#588);
#499=CIRCLE('',#589,0.28125);
#500=VERTEX_POINT('',#590);
#501=LINE('',#591,#592);
#502=CIRCLE('',#593,0.28125);
#503=FILL_AREA_STYLE_COLOUR('',#594);
#504=VERTEX_POINT('',#595);
#505=VERTEX_POINT('',#596);
#506=LINE('',#597,#598);
#507=VERTEX_POINT('',#599);
#508=CIRCLE('',#600,0.28125);
#509=VERTEX_POINT('',#601);
#510=LINE('',#602,#603);
#511=CIRCLE('',#604,0.28125);
#512=FILL_AREA_STYLE_COLOUR('',#605);
#513=CIRCLE('',#606,0.28125);
#514=CIRCLE('',#607,0.28125);
#515=FILL_AREA_STYLE_COLOUR('',#608);
#516=CIRCLE('',#609,0.28125);
#517=CIRCLE('',#610,0.28125);
#518=FILL_AREA_STYLE_COLOUR('',#611);
#519=VERTEX_POINT('',#612);
#520=VERTEX_POINT('',#613);
#521=LINE('',#614,#615);
#522=VERTEX_POINT('',#616);
#523=LINE('',#617,#618);
#524=VERTEX_POINT('',#619);
#525=LINE('',#620,#621);
#526=LINE('',#622,#623);
#527=FILL_AREA_STYLE_COLOUR('',#624);
#528=LINE('',#625,#626);
#529=LINE('',#627,#628);
#530=FILL_AREA_STYLE_COLOUR('',#629);
#531=VERTEX_POINT('',#630);
#532=LINE('',#631,#632);
#533=VERTEX_POINT('',#633);
#534=LINE('',#634,#635);
#535=LINE('',#636,#637);
#536=FILL_AREA_STYLE_COLOUR('',#638);
#537=CIRCLE('',#639,0.28125);
#538=CIRCLE('',#640,0.28125);
#539=LINE('',#641,#642);
#540=FILL_AREA_STYLE_COLOUR('',#643);
#541=LINE('',#644,#645);
#542=FILL_AREA_STYLE_COLOUR('',#646);
#543=CIRCLE('',#647,0.28125);
#544=FILL_AREA_STYLE_COLOUR('',#648);
#545=CIRCLE('',#649,0.28125);
#546=FILL_AREA_STYLE_COLOUR('',#650);
#547=FILL_AREA_STYLE_COLOUR('',#651);
#548=COLOUR_RGB('',0.156862750649452,0.549019634723663,0.941176474094391);
#549=CARTESIAN_POINT('',(2.96875,-0.8125,0.0));
#550=CARTESIAN_POINT('',(2.96875,-0.8125,0.25));
#551=CARTESIAN_POINT('',(2.96875,-0.8125,0.0));
#552=VECTOR('',#652,1.0);
#553=CARTESIAN_POINT('',(2.40625,-0.8125,0.25));
#554=AXIS2_PLACEMENT_3D('',#653,#654,#655);
#555=CARTESIAN_POINT('',(2.40625,-0.8125,0.0));
#556=CARTESIAN_POINT('',(2.40625,-0.8125,0.0));
#557=VECTOR('',#656,1.0);
#558=AXIS2_PLACEMENT_3D('',#657,#658,#659);
#559=COLOUR_RGB('',0.156862750649452,0.549019634723663,0.941176474094391);
#560=CARTESIAN_POINT('',(3.5,0.0,0.25));
#561=CARTESIAN_POINT('',(3.5,-1.625,0.25));
#562=CARTESIAN_POINT('',(3.5,0.0,0.25));
#563=VECTOR('',#660,1.0);
#564=CARTESIAN_POINT('',(3.5,-1.625,0.0));
#565=CARTESIAN_POINT('',(3.5,-1.625,0.0));
#566=VECTOR('',#661,1.0);
#567=CARTESIAN_POINT('',(3.5,0.0,0.0));
#568=CARTESIAN_POINT('',(3.5,0.0,0.0));
#569=VECTOR('',#662,1.0);
#570=CARTESIAN_POINT('',(3.5,0.0,0.0));
#571=VECTOR('',#663,1.0);
#572=COLOUR_RGB('',0.156862750649452,0.549019634723663,0.941176474094391);
#573=CARTESIAN_POINT('',(1.09375,-0.8125,0.0));
#574=CARTESIAN_POINT('',(1.09375,-0.8125,0.25));
#575=CARTESIAN_POINT('',(1.09375,-0.8125,0.0));
#576=VECTOR('',#664,1.0);
#577=CARTESIAN_POINT('',(0.53125,-0.8125,0.25));
#578=AXIS2_PLACEMENT_3D('',#665,#666,#667);
#579=CARTESIAN_POINT('',(0.53125,-0.8125,0.0));
#580=CARTESIAN_POINT('',(0.53125,-0.8125,0.0));
#581=VECTOR('',#668,1.0);
#582=AXIS2_PLACEMENT_3D('',#669,#670,#671);
#583=COLOUR_RGB('',0.156862750649452,0.549019634723663,0.941176474094391);
#584=CARTESIAN_POINT('',(1.09375,-2.6875,0.0));
#585=CARTESIAN_POINT('',(1.09375,-2.6875,0.25));
#586=CARTESIAN_POINT('',(1.09375,-2.6875,0.0));
#587=VECTOR('',#672,1.0);
#588=CARTESIAN_POINT('',(0.531249999999999,-2.6875,0.25));
#589=AXIS2_PLACEMENT_3D('',#673,#674,#675);
#590=CARTESIAN_POINT('',(0.531249999999999,-2.6875,0.0));
#591=CARTESIAN_POINT('',(0.531249999999999,-2.6875,0.0));
#592=VECTOR('',#676,1.0);
#593=AXIS2_PLACEMENT_3D('',#677,#678,#679);
#594=COLOUR_RGB('',0.156862750649452,0.549019634723663,0.941176474094391);
#595=CARTESIAN_POINT('',(1.09375,-4.5625,0.0));
#596=CARTESIAN_POINT('',(1.09375,-4.5625,0.25));
#597=CARTESIAN_POINT('',(1.09375,-4.5625,0.0));
#598=VECTOR('',#680,1.0);
#599=CARTESIAN_POINT('',(0.531249999999999,-4.5625,0.0));
#600=AXIS2_PLACEMENT_3D('',#681,#682,#683);
#601=CARTESIAN_POINT('',(0.531249999999999,-4.5625,0.25));
#602=CARTESIAN_POINT('',(0.531249999999999,-4.5625,0.0));
#603=VECTOR('',#684,1.0);
#604=AXIS2_PLACEMENT_3D('',#685,#686,#687);
#605=COLOUR_RGB('',0.156862750649452,0.549019634723663,0.941176474094391);
#606=AXIS2_PLACEMENT_3D('',#688,#689,#690);
#607=AXIS2_PLACEMENT_3D('',#691,#692,#693);
#608=COLOUR_RGB('',0.156862750649452,0.549019634723663,0.941176474094391);
#609=AXIS2_PLACEMENT_3D('',#694,#695,#696);
#610=AXIS2_PLACEMENT_3D('',#697,#698,#699);
#611=COLOUR_RGB('',0.156862750649452,0.549019634723663,0.941176474094391);
#612=CARTESIAN_POINT('',(-4.44089209850063E-16,-5.375,0.25));
#613=CARTESIAN_POINT('',(0.0,0.0,0.25));
#614=CARTESIAN_POINT('',(-4.44089209850063E-16,-5.375,0.25));
#615=VECTOR('',#700,1.0);
#616=CARTESIAN_POINT('',(0.0,0.0,0.0));
#617=CARTESIAN_POINT('',(0.0,0.0,0.0));
#618=VECTOR('',#701,1.0);
#619=CARTESIAN_POINT('',(-4.44089209850063E-16,-5.375,0.0));
#620=CARTESIAN_POINT('',(-4.44089209850063E-16,-5.375,0.0));
#621=VECTOR('',#702,1.0);
#622=CARTESIAN_POINT('',(-4.44089209850063E-16,-5.375,0.0));
#623=VECTOR('',#703,1.0);
#624=COLOUR_RGB('',0.156862750649452,0.549019634723663,0.941176474094391);
#625=CARTESIAN_POINT('',(0.0,0.0,0.25));
#626=VECTOR('',#704,1.0);
#627=CARTESIAN_POINT('',(0.0,0.0,0.0));
#628=VECTOR('',#705,1.0);
#629=COLOUR_RGB('',0.156862750649452,0.549019634723663,0.941176474094391);
#630=CARTESIAN_POINT('',(1.625,-5.375,0.25));
#631=CARTESIAN_POINT('',(1.625,-5.375,0.25));
#632=VECTOR('',#706,1.0);
#633=CARTESIAN_POINT('',(1.625,-5.375,0.0));
#634=CARTESIAN_POINT('',(1.625,-5.375,0.0));
#635=VECTOR('',#707,1.0);
#636=CARTESIAN_POINT('',(1.625,-5.375,0.0));
#637=VECTOR('',#708,1.0);
#638=COLOUR_RGB('',0.156862750649452,0.549019634723663,0.941176474094391);
#639=AXIS2_PLACEMENT_3D('',#709,#710,#711);
#640=AXIS2_PLACEMENT_3D('',#712,#713,#714);
#641=CARTESIAN_POINT('',(3.5,-1.625,0.0));
#642=VECTOR('',#715,1.0);
#643=COLOUR_RGB('',0.156862750649452,0.549019634723663,0.941176474094391);
#644=CARTESIAN_POINT('',(3.5,-1.625,0.25));
#645=VECTOR('',#716,1.0);
#646=COLOUR_RGB('',0.156862750649452,0.549019634723663,0.941176474094391);
#647=AXIS2_PLACEMENT_3D('',#717,#718,#719);
#648=COLOUR_RGB('',0.156862750649452,0.549019634723663,0.941176474094391);
#649=AXIS2_PLACEMENT_3D('',#720,#721,#722);
#650=COLOUR_RGB('',0.156862750649452,0.549019634723663,0.941176474094391);
#651=COLOUR_RGB('',0.156862750649452,0.549019634723663,0.941176474094391);
#652=DIRECTION('',(-0.0,-0.0,1.0));
#653=CARTESIAN_POINT('',(2.6875,-0.8125,0.25));
#654=DIRECTION('',(0.0,0.0,1.0));
#655=DIRECTION('',(1.0,0.0,0.0));
#656=DIRECTION('',(-0.0,0.0,-1.0));
#657=CARTESIAN_POINT('',(2.6875,-0.8125,0.0));
#658=DIRECTION('',(0.0,0.0,1.0));
#659=DIRECTION('',(1.0,0.0,-0.0));
#660=DIRECTION('',(-2.73285667600039E-16,-1.0,0.0));
#661=DIRECTION('',(0.0,0.0,1.0));
#662=DIRECTION('',(-2.73285667600039E-16,-1.0,0.0));
#663=DIRECTION('',(0.0,0.0,1.0));
#664=DIRECTION('',(-0.0,-0.0,1.0));
#665=CARTESIAN_POINT('',(0.8125,-0.8125,0.25));
#666=DIRECTION('',(0.0,0.0,1.0));
#667=DIRECTION('',(1.0,0.0,0.0));
#668=DIRECTION('',(-0.0,0.0,-1.0));
#669=CARTESIAN_POINT('',(0.8125,-0.8125,0.0));
#670=DIRECTION('',(0.0,0.0,1.0));
#671=DIRECTION('',(1.0,0.0,-0.0));
#672=DIRECTION('',(-0.0,-0.0,1.0));
#673=CARTESIAN_POINT('',(0.812499999999999,-2.6875,0.25));
#674=DIRECTION('',(0.0,0.0,1.0));
#675=DIRECTION('',(1.0,0.0,0.0));
#676=DIRECTION('',(-0.0,0.0,-1.0));
#677=CARTESIAN_POINT('',(0.812499999999999,-2.6875,0.0));
#678=DIRECTION('',(0.0,0.0,1.0));
#679=DIRECTION('',(1.0,0.0,-0.0));
#680=DIRECTION('',(-0.0,-0.0,1.0));
#681=CARTESIAN_POINT('',(0.812499999999999,-4.5625,0.0));
#682=DIRECTION('',(0.0,0.0,1.0));
#683=DIRECTION('',(1.0,0.0,-0.0));
#684=DIRECTION('',(-0.0,0.0,-1.0));
#685=CARTESIAN_POINT('',(0.812499999999999,-4.5625,0.25));
#686=DIRECTION('',(0.0,0.0,1.0));
#687=DIRECTION('',(1.0,0.0,0.0));
#688=CARTESIAN_POINT('',(0.8125,-0.8125,0.0));
#689=DIRECTION('',(0.0,0.0,1.0));
#690=DIRECTION('',(1.0,0.0,-0.0));
#691=CARTESIAN_POINT('',(0.8125,-0.8125,0.25));
#692=DIRECTION('',(0.0,0.0,1.0));
#693=DIRECTION('',(1.0,0.0,0.0));
#694=CARTESIAN_POINT('',(0.812499999999999,-4.5625,0.25));
#695=DIRECTION('',(0.0,0.0,1.0));
#696=DIRECTION('',(1.0,0.0,0.0));
#697=CARTESIAN_POINT('',(0.812499999999999,-4.5625,0.0));
#698=DIRECTION('',(0.0,0.0,1.0));
#699=DIRECTION('',(1.0,0.0,-0.0));
#700=DIRECTION('',(8.26212483441977E-17,1.0,0.0));
#701=DIRECTION('',(0.0,0.0,1.0));
#702=DIRECTION('',(8.26212483441977E-17,1.0,0.0));
#703=DIRECTION('',(0.0,0.0,1.0));
#704=DIRECTION('',(1.0,0.0,0.0));
#705=DIRECTION('',(1.0,0.0,0.0));
#706=DIRECTION('',(-1.0,5.46571335200077E-16,0.0));
#707=DIRECTION('',(-1.0,5.46571335200077E-16,0.0));
#708=DIRECTION('',(0.0,0.0,1.0));
#709=CARTESIAN_POINT('',(0.812499999999999,-2.6875,0.0));
#710=DIRECTION('',(0.0,0.0,1.0));
#711=DIRECTION('',(1.0,0.0,-0.0));
#712=CARTESIAN_POINT('',(2.6875,-0.8125,0.0));
#713=DIRECTION('',(0.0,0.0,1.0));
#714=DIRECTION('',(1.0,0.0,-0.0));
#715=DIRECTION('',(-0.447213595499958,-0.894427190999916,0.0));
#716=DIRECTION('',(-0.447213595499958,-0.894427190999916,0.0));
#717=CARTESIAN_POINT('',(0.812499999999999,-2.6875,0.25));
#718=DIRECTION('',(0.0,0.0,1.0));
#719=DIRECTION('',(1.0,0.0,0.0));
#720=CARTESIAN_POINT('',(2.6875,-0.8125,0.25));
#721=DIRECTION('',(0.0,0.0,1.0));
#722=DIRECTION('',(1.0,0.0,0.0));
ENDSEC;
END-ISO-10303-21;
