ISO-10303-21;
HEADER;
FILE_DESCRIPTION(('TurboCAD Mac Pro'),'Build 980');
FILE_NAME('P1925.stp','  ',(''),(''),'ACIS Interop','IMSI','TurboCAD Mac Pro BY IMSI, INCORPORATED');
FILE_SCHEMA(('automotive_design'));
ENDSEC;
DATA;
#1=MECHANICAL_DESIGN_GEOMETRIC_PRESENTATION_REPRESENTATION(' ',(#14,#15,#16,#17,#18,#19,#20,#21,#22,#23,#24,#25,#26,#27,#28,#29,#30),#10);
#2=PRODUCT_DEFINITION_CONTEXT('',#31,'design');
#3=APPLICATION_PROTOCOL_DEFINITION('INTERNATIONAL STANDARD','automotive_design',1994,#31);
#4=PRODUCT_CATEGORY_RELATIONSHIP('NONE','NONE',#32,#33);
#5=SHAPE_DEFINITION_REPRESENTATION(#34,#35);
#6=PRODUCT_DEFINITION_CONTEXT('',#36,'design');
#7=APPLICATION_PROTOCOL_DEFINITION('INTERNATIONAL STANDARD','automotive_design',1994,#36);
#8=PRODUCT_CATEGORY_RELATIONSHIP('NONE','NONE',#37,#38);
#9=SHAPE_DEFINITION_REPRESENTATION(#39,#40);
#10= (GEOMETRIC_REPRESENTATION_CONTEXT(3)GLOBAL_UNCERTAINTY_ASSIGNED_CONTEXT((#43))GLOBAL_UNIT_ASSIGNED_CONTEXT((#45,#46,#47))REPRESENTATION_CONTEXT('NONE','WORKSPACE'));
#14=STYLED_ITEM('',(#49),#50);
#15=STYLED_ITEM('',(#51),#52);
#16=STYLED_ITEM('',(#53),#54);
#17=STYLED_ITEM('',(#55),#56);
#18=STYLED_ITEM('',(#57),#58);
#19=STYLED_ITEM('',(#59),#60);
#20=STYLED_ITEM('',(#61),#62);
#21=STYLED_ITEM('',(#63),#64);
#22=STYLED_ITEM('',(#65),#66);
#23=STYLED_ITEM('',(#67),#68);
#24=STYLED_ITEM('',(#69),#70);
#25=STYLED_ITEM('',(#71),#72);
#26=STYLED_ITEM('',(#73),#74);
#27=STYLED_ITEM('',(#75),#76);
#28=STYLED_ITEM('',(#77),#78);
#29=STYLED_ITEM('',(#79),#80);
#30=STYLED_ITEM('',(#81),#82);
#31=APPLICATION_CONTEXT(' ');
#32=PRODUCT_CATEGORY('part','NONE');
#33=PRODUCT_RELATED_PRODUCT_CATEGORY('detail',' ',(#83));
#34=PRODUCT_DEFINITION_SHAPE('NONE','NONE',#84);
#35=ADVANCED_BREP_SHAPE_REPRESENTATION('1',(#66,#85),#10);
#36=APPLICATION_CONTEXT(' ');
#37=PRODUCT_CATEGORY('part','NONE');
#38=PRODUCT_RELATED_PRODUCT_CATEGORY('detail',' ',(#86));
#39=PRODUCT_DEFINITION_SHAPE('NONE','NONE',#87);
#40=GEOMETRICALLY_BOUNDED_SURFACE_SHAPE_REPRESENTATION('2',(#88,#89),#10);
#43=UNCERTAINTY_MEASURE_WITH_UNIT(LENGTH_MEASURE(1.0E-06),#45,'','');
#45= (CONVERSION_BASED_UNIT('INCH',#92)LENGTH_UNIT()NAMED_UNIT(#95));
#46= (NAMED_UNIT(#97)PLANE_ANGLE_UNIT()SI_UNIT($,.RADIAN.));
#47= (NAMED_UNIT(#97)SOLID_ANGLE_UNIT()SI_UNIT($,.STERADIAN.));
#49=PRESENTATION_STYLE_ASSIGNMENT((#103));
#50=ADVANCED_FACE('',(#104),#105,.F.);
#51=PRESENTATION_STYLE_ASSIGNMENT((#106));
#52=TRIMMED_CURVE('',#107,(PARAMETER_VALUE(0.0)),(PARAMETER_VALUE(6.28318530717959)),.T.,.UNSPECIFIED.);
#53=PRESENTATION_STYLE_ASSIGNMENT((#108));
#54=ADVANCED_FACE('',(#109),#110,.T.);
#55=PRESENTATION_STYLE_ASSIGNMENT((#111));
#56=ADVANCED_FACE('',(#112),#113,.F.);
#57=PRESENTATION_STYLE_ASSIGNMENT((#114));
#58=ADVANCED_FACE('',(#115,#116,#117,#118),#119,.F.);
#59=PRESENTATION_STYLE_ASSIGNMENT((#120));
#60=ADVANCED_FACE('',(#121),#122,.T.);
#61=PRESENTATION_STYLE_ASSIGNMENT((#123));
#62=ADVANCED_FACE('',(#124),#125,.T.);
#63=PRESENTATION_STYLE_ASSIGNMENT((#126));
#64=TRIMMED_CURVE('',#127,(PARAMETER_VALUE(0.0)),(PARAMETER_VALUE(6.28318530717959)),.T.,.UNSPECIFIED.);
#65=PRESENTATION_STYLE_ASSIGNMENT((#128));
#66=MANIFOLD_SOLID_BREP('1',#129);
#67=PRESENTATION_STYLE_ASSIGNMENT((#130));
#68=ADVANCED_FACE('',(#131),#132,.T.);
#69=PRESENTATION_STYLE_ASSIGNMENT((#133));
#70=ADVANCED_FACE('',(#134),#135,.F.);
#71=PRESENTATION_STYLE_ASSIGNMENT((#136));
#72=ADVANCED_FACE('',(#137,#138,#139,#140),#141,.T.);
#73=PRESENTATION_STYLE_ASSIGNMENT((#142));
#74=ADVANCED_FACE('',(#143),#144,.F.);
#75=PRESENTATION_STYLE_ASSIGNMENT((#145));
#76=TRIMMED_CURVE('',#146,(PARAMETER_VALUE(0.0)),(PARAMETER_VALUE(6.28318530717959)),.T.,.UNSPECIFIED.);
#77=PRESENTATION_STYLE_ASSIGNMENT((#147));
#78=ADVANCED_FACE('',(#148),#149,.F.);
#79=PRESENTATION_STYLE_ASSIGNMENT((#150));
#80=ADVANCED_FACE('',(#151),#152,.F.);
#81=PRESENTATION_STYLE_ASSIGNMENT((#153));
#82=TRIMMED_CURVE('',#154,(PARAMETER_VALUE(0.0)),(PARAMETER_VALUE(6.28318530717959)),.T.,.UNSPECIFIED.);
#83=PRODUCT('1','1','PART-1-DESC',(#155));
#84=PRODUCT_DEFINITION('NONE','NONE',#156,#2);
#85=AXIS2_PLACEMENT_3D('',#157,#158,#159);
#86=PRODUCT('2','2','PART-2-DESC',(#160));
#87=PRODUCT_DEFINITION('NONE','NONE',#161,#6);
#88=GEOMETRIC_SET('2',(#162,#163,#164,#165));
#89=AXIS2_PLACEMENT_3D('',#166,#167,#168);
#92=LENGTH_MEASURE_WITH_UNIT(LENGTH_MEASURE(25.4),#169);
#95=DIMENSIONAL_EXPONENTS(1.0,0.0,0.0,0.0,0.0,0.0,0.0);
#97=DIMENSIONAL_EXPONENTS(0.0,0.0,0.0,0.0,0.0,0.0,0.0);
#103=SURFACE_STYLE_USAGE(.BOTH.,#170);
#104=FACE_OUTER_BOUND('',#171,.T.);
#105=CYLINDRICAL_SURFACE('',#172,0.28125);
#106=CURVE_STYLE('',#173,POSITIVE_LENGTH_MEASURE(1.0E-06),#174);
#107=CIRCLE('',#175,0.28125);
#108=SURFACE_STYLE_USAGE(.BOTH.,#176);
#109=FACE_OUTER_BOUND('',#177,.T.);
#110=PLANE('',#178);
#111=SURFACE_STYLE_USAGE(.BOTH.,#179);
#112=FACE_OUTER_BOUND('',#180,.T.);
#113=CYLINDRICAL_SURFACE('',#181,0.28125);
#114=SURFACE_STYLE_USAGE(.BOTH.,#182);
#115=FACE_BOUND('',#183,.T.);
#116=FACE_BOUND('',#184,.T.);
#117=FACE_BOUND('',#185,.T.);
#118=FACE_OUTER_BOUND('',#186,.T.);
#119=PLANE('',#187);
#120=SURFACE_STYLE_USAGE(.BOTH.,#188);
#121=FACE_OUTER_BOUND('',#189,.T.);
#122=PLANE('',#190);
#123=SURFACE_STYLE_USAGE(.BOTH.,#191);
#124=FACE_OUTER_BOUND('',#192,.T.);
#125=PLANE('',#193);
#126=CURVE_STYLE('',#194,POSITIVE_LENGTH_MEASURE(1.0E-06),#195);
#127=CIRCLE('',#196,0.28125);
#128=SURFACE_STYLE_USAGE(.BOTH.,#197);
#129=CLOSED_SHELL('',(#50,#78,#74,#60,#68,#54,#62,#70,#56,#80,#72,#58));
#130=SURFACE_STYLE_USAGE(.BOTH.,#198);
#131=FACE_OUTER_BOUND('',#199,.T.);
#132=PLANE('',#200);
#133=SURFACE_STYLE_USAGE(.BOTH.,#201);
#134=FACE_OUTER_BOUND('',#202,.T.);
#135=CYLINDRICAL_SURFACE('',#203,0.28125);
#136=SURFACE_STYLE_USAGE(.BOTH.,#204);
#137=FACE_BOUND('',#205,.T.);
#138=FACE_BOUND('',#206,.T.);
#139=FACE_BOUND('',#207,.T.);
#140=FACE_OUTER_BOUND('',#208,.T.);
#141=PLANE('',#209);
#142=SURFACE_STYLE_USAGE(.BOTH.,#210);
#143=FACE_OUTER_BOUND('',#211,.T.);
#144=CYLINDRICAL_SURFACE('',#212,0.28125);
#145=CURVE_STYLE('',#213,POSITIVE_LENGTH_MEASURE(1.0E-06),#214);
#146=CIRCLE('',#215,0.28125);
#147=SURFACE_STYLE_USAGE(.BOTH.,#216);
#148=FACE_OUTER_BOUND('',#217,.T.);
#149=CYLINDRICAL_SURFACE('',#218,0.28125);
#150=SURFACE_STYLE_USAGE(.BOTH.,#219);
#151=FACE_OUTER_BOUND('',#220,.T.);
#152=CYLINDRICAL_SURFACE('',#221,0.28125);
#153=CURVE_STYLE('',#222,POSITIVE_LENGTH_MEASURE(1.0E-06),#223);
#154=CIRCLE('',#224,0.28125);
#155=PRODUCT_CONTEXT('',#31,'mechanical');
#156=PRODUCT_DEFINITION_FORMATION_WITH_SPECIFIED_SOURCE(' ','NONE',#83,.NOT_KNOWN.);
#157=CARTESIAN_POINT('',(0.0,0.0,0.0));
#158=DIRECTION('',(0.0,0.0,1.0));
#159=DIRECTION('',(1.0,0.0,0.0));
#160=PRODUCT_CONTEXT('',#36,'mechanical');
#161=PRODUCT_DEFINITION_FORMATION_WITH_SPECIFIED_SOURCE(' ','NONE',#86,.NOT_KNOWN.);
#162=COMPOSITE_CURVE('',(#225),.U.);
#163=COMPOSITE_CURVE('',(#226),.U.);
#164=COMPOSITE_CURVE('',(#227),.U.);
#165=COMPOSITE_CURVE('',(#228),.U.);
#166=CARTESIAN_POINT('',(0.0,0.0,0.0));
#167=DIRECTION('',(0.0,0.0,1.0));
#168=DIRECTION('',(1.0,0.0,0.0));
#169= (NAMED_UNIT(#95)LENGTH_UNIT()SI_UNIT(.MILLI.,.METRE.));
#170=SURFACE_SIDE_STYLE('',(#230));
#171=EDGE_LOOP('',(#231,#232,#233,#234));
#172=AXIS2_PLACEMENT_3D('',#235,#236,#237);
#173=DRAUGHTING_PRE_DEFINED_CURVE_FONT('continuous');
#174=COLOUR_RGB('',1.0,1.0,1.0);
#175=AXIS2_PLACEMENT_3D('',#238,#239,#240);
#176=SURFACE_SIDE_STYLE('',(#241));
#177=EDGE_LOOP('',(#242,#243,#244,#245));
#178=AXIS2_PLACEMENT_3D('',#246,#247,#248);
#179=SURFACE_SIDE_STYLE('',(#249));
#180=EDGE_LOOP('',(#250,#251,#252,#253));
#181=AXIS2_PLACEMENT_3D('',#254,#255,#256);
#182=SURFACE_SIDE_STYLE('',(#257));
#183=EDGE_LOOP('',(#258,#259));
#184=EDGE_LOOP('',(#260,#261));
#185=EDGE_LOOP('',(#262,#263));
#186=EDGE_LOOP('',(#264,#265,#266,#267));
#187=AXIS2_PLACEMENT_3D('',#268,#269,#270);
#188=SURFACE_SIDE_STYLE('',(#271));
#189=EDGE_LOOP('',(#272,#273,#274,#275));
#190=AXIS2_PLACEMENT_3D('',#276,#277,#278);
#191=SURFACE_SIDE_STYLE('',(#279));
#192=EDGE_LOOP('',(#280,#281,#282,#283));
#193=AXIS2_PLACEMENT_3D('',#284,#285,#286);
#194=DRAUGHTING_PRE_DEFINED_CURVE_FONT('continuous');
#195=COLOUR_RGB('',1.0,1.0,1.0);
#196=AXIS2_PLACEMENT_3D('',#287,#288,#289);
#197=SURFACE_SIDE_STYLE('',(#290));
#198=SURFACE_SIDE_STYLE('',(#291));
#199=EDGE_LOOP('',(#292,#293,#294,#295));
#200=AXIS2_PLACEMENT_3D('',#296,#297,#298);
#201=SURFACE_SIDE_STYLE('',(#299));
#202=EDGE_LOOP('',(#300,#301,#302,#303));
#203=AXIS2_PLACEMENT_3D('',#304,#305,#306);
#204=SURFACE_SIDE_STYLE('',(#307));
#205=EDGE_LOOP('',(#308,#309));
#206=EDGE_LOOP('',(#310,#311));
#207=EDGE_LOOP('',(#312,#313));
#208=EDGE_LOOP('',(#314,#315,#316,#317));
#209=AXIS2_PLACEMENT_3D('',#318,#319,#320);
#210=SURFACE_SIDE_STYLE('',(#321));
#211=EDGE_LOOP('',(#322,#323,#324,#325));
#212=AXIS2_PLACEMENT_3D('',#326,#327,#328);
#213=DRAUGHTING_PRE_DEFINED_CURVE_FONT('continuous');
#214=COLOUR_RGB('',0.156862750649452,0.549019634723663,0.941176474094391);
#215=AXIS2_PLACEMENT_3D('',#329,#330,#331);
#216=SURFACE_SIDE_STYLE('',(#332));
#217=EDGE_LOOP('',(#333,#334,#335,#336));
#218=AXIS2_PLACEMENT_3D('',#337,#338,#339);
#219=SURFACE_SIDE_STYLE('',(#340));
#220=EDGE_LOOP('',(#341,#342,#343,#344));
#221=AXIS2_PLACEMENT_3D('',#345,#346,#347);
#222=DRAUGHTING_PRE_DEFINED_CURVE_FONT('continuous');
#223=COLOUR_RGB('',1.0,1.0,1.0);
#224=AXIS2_PLACEMENT_3D('',#348,#349,#350);
#225=COMPOSITE_CURVE_SEGMENT('',.CONTINUOUS.,.T.,#64);
#226=COMPOSITE_CURVE_SEGMENT('',.CONTINUOUS.,.T.,#82);
#227=COMPOSITE_CURVE_SEGMENT('',.CONTINUOUS.,.T.,#52);
#228=COMPOSITE_CURVE_SEGMENT('',.CONTINUOUS.,.T.,#76);
#230=SURFACE_STYLE_FILL_AREA(#351);
#231=ORIENTED_EDGE('',*,*,#352,.F.);
#232=ORIENTED_EDGE('',*,*,#353,.F.);
#233=ORIENTED_EDGE('',*,*,#354,.F.);
#234=ORIENTED_EDGE('',*,*,#355,.T.);
#235=CARTESIAN_POINT('',(1.625,0.0,0.0));
#236=DIRECTION('',(-0.0,-0.0,-1.0));
#237=DIRECTION('',(1.0,0.0,0.0));
#238=CARTESIAN_POINT('',(1.625,0.0,0.0));
#239=DIRECTION('',(0.0,0.0,1.0));
#240=DIRECTION('',(1.0,-2.44929359829471E-16,0.0));
#241=SURFACE_STYLE_FILL_AREA(#356);
#242=ORIENTED_EDGE('',*,*,#357,.T.);
#243=ORIENTED_EDGE('',*,*,#358,.F.);
#244=ORIENTED_EDGE('',*,*,#359,.F.);
#245=ORIENTED_EDGE('',*,*,#360,.T.);
#246=CARTESIAN_POINT('',(-8.88178419700125E-16,-0.8125,0.0));
#247=DIRECTION('',(0.0,-1.0,0.0));
#248=DIRECTION('',(1.0,0.0,-0.0));
#249=SURFACE_STYLE_FILL_AREA(#361);
#250=ORIENTED_EDGE('',*,*,#362,.T.);
#251=ORIENTED_EDGE('',*,*,#363,.T.);
#252=ORIENTED_EDGE('',*,*,#364,.T.);
#253=ORIENTED_EDGE('',*,*,#365,.F.);
#254=CARTESIAN_POINT('',(-1.625,0.0,0.0));
#255=DIRECTION('',(-0.0,-0.0,-1.0));
#256=DIRECTION('',(1.0,0.0,0.0));
#257=SURFACE_STYLE_FILL_AREA(#366);
#258=ORIENTED_EDGE('',*,*,#367,.T.);
#259=ORIENTED_EDGE('',*,*,#353,.T.);
#260=ORIENTED_EDGE('',*,*,#365,.T.);
#261=ORIENTED_EDGE('',*,*,#368,.T.);
#262=ORIENTED_EDGE('',*,*,#369,.T.);
#263=ORIENTED_EDGE('',*,*,#370,.T.);
#264=ORIENTED_EDGE('',*,*,#371,.T.);
#265=ORIENTED_EDGE('',*,*,#372,.T.);
#266=ORIENTED_EDGE('',*,*,#373,.T.);
#267=ORIENTED_EDGE('',*,*,#359,.T.);
#268=CARTESIAN_POINT('',(-7.72109648943859E-16,0.0,0.0));
#269=DIRECTION('',(0.0,0.0,1.0));
#270=DIRECTION('',(1.0,0.0,0.0));
#271=SURFACE_STYLE_FILL_AREA(#374);
#272=ORIENTED_EDGE('',*,*,#375,.T.);
#273=ORIENTED_EDGE('',*,*,#376,.F.);
#274=ORIENTED_EDGE('',*,*,#372,.F.);
#275=ORIENTED_EDGE('',*,*,#377,.T.);
#276=CARTESIAN_POINT('',(-8.88178419700125E-16,0.8125,0.0));
#277=DIRECTION('',(0.0,1.0,0.0));
#278=DIRECTION('',(-1.0,0.0,0.0));
#279=SURFACE_STYLE_FILL_AREA(#378);
#280=ORIENTED_EDGE('',*,*,#379,.T.);
#281=ORIENTED_EDGE('',*,*,#377,.F.);
#282=ORIENTED_EDGE('',*,*,#371,.F.);
#283=ORIENTED_EDGE('',*,*,#358,.T.);
#284=CARTESIAN_POINT('',(-2.4375,0.0,0.0));
#285=DIRECTION('',(-1.0,-0.0,0.0));
#286=DIRECTION('',(0.0,-1.0,-0.0));
#287=CARTESIAN_POINT('',(-1.625,0.0,0.0));
#288=DIRECTION('',(0.0,0.0,1.0));
#289=DIRECTION('',(1.0,-2.44929359829471E-16,0.0));
#290=SURFACE_STYLE_FILL_AREA(#380);
#291=SURFACE_STYLE_FILL_AREA(#381);
#292=ORIENTED_EDGE('',*,*,#382,.T.);
#293=ORIENTED_EDGE('',*,*,#360,.F.);
#294=ORIENTED_EDGE('',*,*,#373,.F.);
#295=ORIENTED_EDGE('',*,*,#376,.T.);
#296=CARTESIAN_POINT('',(2.4375,0.0,0.0));
#297=DIRECTION('',(1.0,0.0,-0.0));
#298=DIRECTION('',(-0.0,1.0,0.0));
#299=SURFACE_STYLE_FILL_AREA(#383);
#300=ORIENTED_EDGE('',*,*,#384,.T.);
#301=ORIENTED_EDGE('',*,*,#385,.T.);
#302=ORIENTED_EDGE('',*,*,#386,.T.);
#303=ORIENTED_EDGE('',*,*,#369,.F.);
#304=CARTESIAN_POINT('',(0.0,0.0,0.0));
#305=DIRECTION('',(-0.0,-0.0,-1.0));
#306=DIRECTION('',(1.0,0.0,0.0));
#307=SURFACE_STYLE_FILL_AREA(#387);
#308=ORIENTED_EDGE('',*,*,#388,.F.);
#309=ORIENTED_EDGE('',*,*,#355,.F.);
#310=ORIENTED_EDGE('',*,*,#363,.F.);
#311=ORIENTED_EDGE('',*,*,#389,.F.);
#312=ORIENTED_EDGE('',*,*,#385,.F.);
#313=ORIENTED_EDGE('',*,*,#390,.F.);
#314=ORIENTED_EDGE('',*,*,#375,.F.);
#315=ORIENTED_EDGE('',*,*,#379,.F.);
#316=ORIENTED_EDGE('',*,*,#357,.F.);
#317=ORIENTED_EDGE('',*,*,#382,.F.);
#318=CARTESIAN_POINT('',(-7.72109648943859E-16,0.0,0.25));
#319=DIRECTION('',(0.0,0.0,1.0));
#320=DIRECTION('',(1.0,0.0,0.0));
#321=SURFACE_STYLE_FILL_AREA(#391);
#322=ORIENTED_EDGE('',*,*,#384,.F.);
#323=ORIENTED_EDGE('',*,*,#370,.F.);
#324=ORIENTED_EDGE('',*,*,#386,.F.);
#325=ORIENTED_EDGE('',*,*,#390,.T.);
#326=CARTESIAN_POINT('',(0.0,0.0,0.0));
#327=DIRECTION('',(-0.0,-0.0,-1.0));
#328=DIRECTION('',(1.0,0.0,0.0));
#329=CARTESIAN_POINT('',(0.0,0.0,0.0));
#330=DIRECTION('',(0.0,0.0,1.0));
#331=DIRECTION('',(1.0,-2.44929359829471E-16,0.0));
#332=SURFACE_STYLE_FILL_AREA(#392);
#333=ORIENTED_EDGE('',*,*,#362,.F.);
#334=ORIENTED_EDGE('',*,*,#368,.F.);
#335=ORIENTED_EDGE('',*,*,#364,.F.);
#336=ORIENTED_EDGE('',*,*,#389,.T.);
#337=CARTESIAN_POINT('',(-1.625,0.0,0.0));
#338=DIRECTION('',(-0.0,-0.0,-1.0));
#339=DIRECTION('',(1.0,0.0,0.0));
#340=SURFACE_STYLE_FILL_AREA(#393);
#341=ORIENTED_EDGE('',*,*,#352,.T.);
#342=ORIENTED_EDGE('',*,*,#388,.T.);
#343=ORIENTED_EDGE('',*,*,#354,.T.);
#344=ORIENTED_EDGE('',*,*,#367,.F.);
#345=CARTESIAN_POINT('',(1.625,0.0,0.0));
#346=DIRECTION('',(-0.0,-0.0,-1.0));
#347=DIRECTION('',(1.0,0.0,0.0));
#348=CARTESIAN_POINT('',(0.0,0.0,0.0));
#349=DIRECTION('',(0.0,0.0,1.0));
#350=DIRECTION('',(1.0,-2.44929359829471E-16,0.0));
#351=FILL_AREA_STYLE('',(#394));
#352=EDGE_CURVE('',#395,#396,#397,.T.);
#353=EDGE_CURVE('',#398,#395,#399,.T.);
#354=EDGE_CURVE('',#400,#398,#401,.T.);
#355=EDGE_CURVE('',#400,#396,#402,.T.);
#356=FILL_AREA_STYLE('',(#403));
#357=EDGE_CURVE('',#404,#405,#406,.T.);
#358=EDGE_CURVE('',#407,#405,#408,.T.);
#359=EDGE_CURVE('',#409,#407,#410,.T.);
#360=EDGE_CURVE('',#409,#404,#411,.T.);
#361=FILL_AREA_STYLE('',(#412));
#362=EDGE_CURVE('',#413,#414,#415,.T.);
#363=EDGE_CURVE('',#414,#416,#417,.T.);
#364=EDGE_CURVE('',#416,#418,#419,.T.);
#365=EDGE_CURVE('',#413,#418,#420,.T.);
#366=FILL_AREA_STYLE('',(#421));
#367=EDGE_CURVE('',#395,#398,#422,.T.);
#368=EDGE_CURVE('',#418,#413,#423,.T.);
#369=EDGE_CURVE('',#424,#425,#426,.T.);
#370=EDGE_CURVE('',#425,#424,#427,.T.);
#371=EDGE_CURVE('',#407,#428,#429,.T.);
#372=EDGE_CURVE('',#428,#430,#431,.T.);
#373=EDGE_CURVE('',#430,#409,#432,.T.);
#374=FILL_AREA_STYLE('',(#433));
#375=EDGE_CURVE('',#434,#435,#436,.T.);
#376=EDGE_CURVE('',#430,#435,#437,.T.);
#377=EDGE_CURVE('',#428,#434,#438,.T.);
#378=FILL_AREA_STYLE('',(#439));
#379=EDGE_CURVE('',#405,#434,#440,.T.);
#380=FILL_AREA_STYLE('',(#441));
#381=FILL_AREA_STYLE('',(#442));
#382=EDGE_CURVE('',#435,#404,#443,.T.);
#383=FILL_AREA_STYLE('',(#444));
#384=EDGE_CURVE('',#424,#445,#446,.T.);
#385=EDGE_CURVE('',#445,#447,#448,.T.);
#386=EDGE_CURVE('',#447,#425,#449,.T.);
#387=FILL_AREA_STYLE('',(#450));
#388=EDGE_CURVE('',#396,#400,#451,.T.);
#389=EDGE_CURVE('',#416,#414,#452,.T.);
#390=EDGE_CURVE('',#447,#445,#453,.T.);
#391=FILL_AREA_STYLE('',(#454));
#392=FILL_AREA_STYLE('',(#455));
#393=FILL_AREA_STYLE('',(#456));
#394=FILL_AREA_STYLE_COLOUR('',#457);
#395=VERTEX_POINT('',#458);
#396=VERTEX_POINT('',#459);
#397=LINE('',#460,#461);
#398=VERTEX_POINT('',#462);
#399=CIRCLE('',#463,0.28125);
#400=VERTEX_POINT('',#464);
#401=LINE('',#465,#466);
#402=CIRCLE('',#467,0.28125);
#403=FILL_AREA_STYLE_COLOUR('',#468);
#404=VERTEX_POINT('',#469);
#405=VERTEX_POINT('',#470);
#406=LINE('',#471,#472);
#407=VERTEX_POINT('',#473);
#408=LINE('',#474,#475);
#409=VERTEX_POINT('',#476);
#410=LINE('',#477,#478);
#411=LINE('',#479,#480);
#412=FILL_AREA_STYLE_COLOUR('',#481);
#413=VERTEX_POINT('',#482);
#414=VERTEX_POINT('',#483);
#415=LINE('',#484,#485);
#416=VERTEX_POINT('',#486);
#417=CIRCLE('',#487,0.28125);
#418=VERTEX_POINT('',#488);
#419=LINE('',#489,#490);
#420=CIRCLE('',#491,0.28125);
#421=FILL_AREA_STYLE_COLOUR('',#492);
#422=CIRCLE('',#493,0.28125);
#423=CIRCLE('',#494,0.28125);
#424=VERTEX_POINT('',#495);
#425=VERTEX_POINT('',#496);
#426=CIRCLE('',#497,0.28125);
#427=CIRCLE('',#498,0.28125);
#428=VERTEX_POINT('',#499);
#429=LINE('',#500,#501);
#430=VERTEX_POINT('',#502);
#431=LINE('',#503,#504);
#432=LINE('',#505,#506);
#433=FILL_AREA_STYLE_COLOUR('',#507);
#434=VERTEX_POINT('',#508);
#435=VERTEX_POINT('',#509);
#436=LINE('',#510,#511);
#437=LINE('',#512,#513);
#438=LINE('',#514,#515);
#439=FILL_AREA_STYLE_COLOUR('',#516);
#440=LINE('',#517,#518);
#441=FILL_AREA_STYLE_COLOUR('',#519);
#442=FILL_AREA_STYLE_COLOUR('',#520);
#443=LINE('',#521,#522);
#444=FILL_AREA_STYLE_COLOUR('',#523);
#445=VERTEX_POINT('',#524);
#446=LINE('',#525,#526);
#447=VERTEX_POINT('',#527);
#448=CIRCLE('',#528,0.28125);
#449=LINE('',#529,#530);
#450=FILL_AREA_STYLE_COLOUR('',#531);
#451=CIRCLE('',#532,0.28125);
#452=CIRCLE('',#533,0.28125);
#453=CIRCLE('',#534,0.28125);
#454=FILL_AREA_STYLE_COLOUR('',#535);
#455=FILL_AREA_STYLE_COLOUR('',#536);
#456=FILL_AREA_STYLE_COLOUR('',#537);
#457=COLOUR_RGB('',0.156862750649452,0.549019634723663,0.941176474094391);
#458=CARTESIAN_POINT('',(1.90625,0.0,0.0));
#459=CARTESIAN_POINT('',(1.90625,0.0,0.25));
#460=CARTESIAN_POINT('',(1.90625,-3.44431912260193E-17,0.0));
#461=VECTOR('',#538,1.0);
#462=CARTESIAN_POINT('',(1.34375,3.44431912260193E-17,0.0));
#463=AXIS2_PLACEMENT_3D('',#539,#540,#541);
#464=CARTESIAN_POINT('',(1.34375,3.44431912260193E-17,0.25));
#465=CARTESIAN_POINT('',(1.34375,3.44431912260193E-17,0.0));
#466=VECTOR('',#542,1.0);
#467=AXIS2_PLACEMENT_3D('',#543,#544,#545);
#468=COLOUR_RGB('',0.156862750649452,0.549019634723663,0.941176474094391);
#469=CARTESIAN_POINT('',(2.4375,-0.8125,0.25));
#470=CARTESIAN_POINT('',(-2.4375,-0.8125,0.25));
#471=CARTESIAN_POINT('',(2.4375,-0.8125,0.25));
#472=VECTOR('',#546,1.0);
#473=CARTESIAN_POINT('',(-2.4375,-0.8125,0.0));
#474=CARTESIAN_POINT('',(-2.4375,-0.8125,0.0));
#475=VECTOR('',#547,1.0);
#476=CARTESIAN_POINT('',(2.4375,-0.8125,0.0));
#477=CARTESIAN_POINT('',(2.4375,-0.8125,0.0));
#478=VECTOR('',#548,1.0);
#479=CARTESIAN_POINT('',(2.4375,-0.8125,0.0));
#480=VECTOR('',#549,1.0);
#481=COLOUR_RGB('',0.156862750649452,0.549019634723663,0.941176474094391);
#482=CARTESIAN_POINT('',(-1.34375,0.0,0.0));
#483=CARTESIAN_POINT('',(-1.34375,0.0,0.25));
#484=CARTESIAN_POINT('',(-1.34375,-3.44431912260193E-17,0.0));
#485=VECTOR('',#550,1.0);
#486=CARTESIAN_POINT('',(-1.90625,3.44431912260193E-17,0.25));
#487=AXIS2_PLACEMENT_3D('',#551,#552,#553);
#488=CARTESIAN_POINT('',(-1.90625,3.44431912260193E-17,0.0));
#489=CARTESIAN_POINT('',(-1.90625,3.44431912260193E-17,0.0));
#490=VECTOR('',#554,1.0);
#491=AXIS2_PLACEMENT_3D('',#555,#556,#557);
#492=COLOUR_RGB('',0.156862750649452,0.549019634723663,0.941176474094391);
#493=AXIS2_PLACEMENT_3D('',#558,#559,#560);
#494=AXIS2_PLACEMENT_3D('',#561,#562,#563);
#495=CARTESIAN_POINT('',(0.28125,0.0,0.0));
#496=CARTESIAN_POINT('',(-0.28125,3.44431912260193E-17,0.0));
#497=AXIS2_PLACEMENT_3D('',#564,#565,#566);
#498=AXIS2_PLACEMENT_3D('',#567,#568,#569);
#499=CARTESIAN_POINT('',(-2.4375,0.8125,0.0));
#500=CARTESIAN_POINT('',(-2.4375,-0.8125,0.0));
#501=VECTOR('',#570,1.0);
#502=CARTESIAN_POINT('',(2.4375,0.8125,0.0));
#503=CARTESIAN_POINT('',(-2.4375,0.8125,0.0));
#504=VECTOR('',#571,1.0);
#505=CARTESIAN_POINT('',(2.4375,0.8125,0.0));
#506=VECTOR('',#572,1.0);
#507=COLOUR_RGB('',0.156862750649452,0.549019634723663,0.941176474094391);
#508=CARTESIAN_POINT('',(-2.4375,0.8125,0.25));
#509=CARTESIAN_POINT('',(2.4375,0.8125,0.25));
#510=CARTESIAN_POINT('',(-2.4375,0.8125,0.25));
#511=VECTOR('',#573,1.0);
#512=CARTESIAN_POINT('',(2.4375,0.8125,0.0));
#513=VECTOR('',#574,1.0);
#514=CARTESIAN_POINT('',(-2.4375,0.8125,0.0));
#515=VECTOR('',#575,1.0);
#516=COLOUR_RGB('',0.156862750649452,0.549019634723663,0.941176474094391);
#517=CARTESIAN_POINT('',(-2.4375,-0.8125,0.25));
#518=VECTOR('',#576,1.0);
#519=COLOUR_RGB('',0.156862750649452,0.549019634723663,0.941176474094391);
#520=COLOUR_RGB('',0.156862750649452,0.549019634723663,0.941176474094391);
#521=CARTESIAN_POINT('',(2.4375,0.8125,0.25));
#522=VECTOR('',#577,1.0);
#523=COLOUR_RGB('',0.156862750649452,0.549019634723663,0.941176474094391);
#524=CARTESIAN_POINT('',(0.28125,0.0,0.25));
#525=CARTESIAN_POINT('',(0.28125,-3.44431912260193E-17,0.0));
#526=VECTOR('',#578,1.0);
#527=CARTESIAN_POINT('',(-0.28125,3.44431912260193E-17,0.25));
#528=AXIS2_PLACEMENT_3D('',#579,#580,#581);
#529=CARTESIAN_POINT('',(-0.28125,3.44431912260193E-17,0.0));
#530=VECTOR('',#582,1.0);
#531=COLOUR_RGB('',0.156862750649452,0.549019634723663,0.941176474094391);
#532=AXIS2_PLACEMENT_3D('',#583,#584,#585);
#533=AXIS2_PLACEMENT_3D('',#586,#587,#588);
#534=AXIS2_PLACEMENT_3D('',#589,#590,#591);
#535=COLOUR_RGB('',0.156862750649452,0.549019634723663,0.941176474094391);
#536=COLOUR_RGB('',0.156862750649452,0.549019634723663,0.941176474094391);
#537=COLOUR_RGB('',0.156862750649452,0.549019634723663,0.941176474094391);
#538=DIRECTION('',(-0.0,0.0,1.0));
#539=CARTESIAN_POINT('',(1.625,0.0,0.0));
#540=DIRECTION('',(0.0,0.0,1.0));
#541=DIRECTION('',(1.0,0.0,-0.0));
#542=DIRECTION('',(-0.0,0.0,-1.0));
#543=CARTESIAN_POINT('',(1.625,0.0,0.25));
#544=DIRECTION('',(0.0,0.0,1.0));
#545=DIRECTION('',(1.0,0.0,0.0));
#546=DIRECTION('',(-1.0,0.0,0.0));
#547=DIRECTION('',(0.0,0.0,1.0));
#548=DIRECTION('',(-1.0,0.0,0.0));
#549=DIRECTION('',(0.0,0.0,1.0));
#550=DIRECTION('',(-0.0,0.0,1.0));
#551=CARTESIAN_POINT('',(-1.625,0.0,0.25));
#552=DIRECTION('',(0.0,0.0,1.0));
#553=DIRECTION('',(1.0,0.0,0.0));
#554=DIRECTION('',(-0.0,0.0,-1.0));
#555=CARTESIAN_POINT('',(-1.625,0.0,0.0));
#556=DIRECTION('',(0.0,0.0,1.0));
#557=DIRECTION('',(1.0,0.0,-0.0));
#558=CARTESIAN_POINT('',(1.625,0.0,0.0));
#559=DIRECTION('',(0.0,0.0,1.0));
#560=DIRECTION('',(1.0,0.0,-0.0));
#561=CARTESIAN_POINT('',(-1.625,0.0,0.0));
#562=DIRECTION('',(0.0,0.0,1.0));
#563=DIRECTION('',(1.0,0.0,-0.0));
#564=CARTESIAN_POINT('',(0.0,0.0,0.0));
#565=DIRECTION('',(0.0,0.0,1.0));
#566=DIRECTION('',(1.0,0.0,-0.0));
#567=CARTESIAN_POINT('',(0.0,0.0,0.0));
#568=DIRECTION('',(0.0,0.0,1.0));
#569=DIRECTION('',(1.0,0.0,-0.0));
#570=DIRECTION('',(0.0,1.0,0.0));
#571=DIRECTION('',(1.0,0.0,0.0));
#572=DIRECTION('',(0.0,-1.0,0.0));
#573=DIRECTION('',(1.0,0.0,0.0));
#574=DIRECTION('',(0.0,0.0,1.0));
#575=DIRECTION('',(0.0,0.0,1.0));
#576=DIRECTION('',(0.0,1.0,0.0));
#577=DIRECTION('',(0.0,-1.0,0.0));
#578=DIRECTION('',(-0.0,0.0,1.0));
#579=CARTESIAN_POINT('',(0.0,0.0,0.25));
#580=DIRECTION('',(0.0,0.0,1.0));
#581=DIRECTION('',(1.0,0.0,0.0));
#582=DIRECTION('',(-0.0,0.0,-1.0));
#583=CARTESIAN_POINT('',(1.625,0.0,0.25));
#584=DIRECTION('',(0.0,0.0,1.0));
#585=DIRECTION('',(1.0,0.0,0.0));
#586=CARTESIAN_POINT('',(-1.625,0.0,0.25));
#587=DIRECTION('',(0.0,0.0,1.0));
#588=DIRECTION('',(1.0,0.0,0.0));
#589=CARTESIAN_POINT('',(0.0,0.0,0.25));
#590=DIRECTION('',(0.0,0.0,1.0));
#591=DIRECTION('',(1.0,0.0,0.0));
ENDSEC;
END-ISO-10303-21;
