ISO-10303-21;
HEADER;
FILE_DESCRIPTION(('TurboCAD Mac Pro'),'Build 980');
FILE_NAME('P1962.stp','  ',(''),(''),'ACIS Interop','IMSI','TurboCAD Mac Pro BY IMSI, INCORPORATED');
FILE_SCHEMA(('automotive_design'));
ENDSEC;
DATA;
#1=MECHANICAL_DESIGN_GEOMETRIC_PRESENTATION_REPRESENTATION(' ',(#14,#15,#16,#17,#18,#19,#20,#21,#22,#23,#24,#25,#26,#27,#28,#29,#30,#31,#32,#33),#10);
#2=PRODUCT_DEFINITION_CONTEXT('',#34,'design');
#3=APPLICATION_PROTOCOL_DEFINITION('INTERNATIONAL STANDARD','automotive_design',1994,#34);
#4=PRODUCT_CATEGORY_RELATIONSHIP('NONE','NONE',#35,#36);
#5=SHAPE_DEFINITION_REPRESENTATION(#37,#38);
#6=PRODUCT_DEFINITION_CONTEXT('',#39,'design');
#7=APPLICATION_PROTOCOL_DEFINITION('INTERNATIONAL STANDARD','automotive_design',1994,#39);
#8=PRODUCT_CATEGORY_RELATIONSHIP('NONE','NONE',#40,#41);
#9=SHAPE_DEFINITION_REPRESENTATION(#42,#43);
#10= (GEOMETRIC_REPRESENTATION_CONTEXT(3)GLOBAL_UNCERTAINTY_ASSIGNED_CONTEXT((#46))GLOBAL_UNIT_ASSIGNED_CONTEXT((#48,#49,#50))REPRESENTATION_CONTEXT('NONE','WORKSPACE'));
#14=STYLED_ITEM('',(#52),#53);
#15=STYLED_ITEM('',(#54),#55);
#16=STYLED_ITEM('',(#56),#57);
#17=STYLED_ITEM('',(#58),#59);
#18=STYLED_ITEM('',(#60),#61);
#19=STYLED_ITEM('',(#62),#63);
#20=STYLED_ITEM('',(#64),#65);
#21=STYLED_ITEM('',(#66),#67);
#22=STYLED_ITEM('',(#68),#69);
#23=STYLED_ITEM('',(#70),#71);
#24=STYLED_ITEM('',(#72),#73);
#25=STYLED_ITEM('',(#74),#75);
#26=STYLED_ITEM('',(#76),#77);
#27=STYLED_ITEM('',(#78),#79);
#28=STYLED_ITEM('',(#80),#81);
#29=STYLED_ITEM('',(#82),#83);
#30=STYLED_ITEM('',(#84),#85);
#31=STYLED_ITEM('',(#86),#87);
#32=STYLED_ITEM('',(#88),#89);
#33=STYLED_ITEM('',(#90),#91);
#34=APPLICATION_CONTEXT(' ');
#35=PRODUCT_CATEGORY('part','NONE');
#36=PRODUCT_RELATED_PRODUCT_CATEGORY('detail',' ',(#92));
#37=PRODUCT_DEFINITION_SHAPE('NONE','NONE',#93);
#38=ADVANCED_BREP_SHAPE_REPRESENTATION('1',(#77,#94),#10);
#39=APPLICATION_CONTEXT(' ');
#40=PRODUCT_CATEGORY('part','NONE');
#41=PRODUCT_RELATED_PRODUCT_CATEGORY('detail',' ',(#95));
#42=PRODUCT_DEFINITION_SHAPE('NONE','NONE',#96);
#43=GEOMETRICALLY_BOUNDED_SURFACE_SHAPE_REPRESENTATION('2',(#97,#98),#10);
#46=UNCERTAINTY_MEASURE_WITH_UNIT(LENGTH_MEASURE(1.0E-06),#48,'','');
#48= (CONVERSION_BASED_UNIT('INCH',#101)LENGTH_UNIT()NAMED_UNIT(#104));
#49= (NAMED_UNIT(#106)PLANE_ANGLE_UNIT()SI_UNIT($,.RADIAN.));
#50= (NAMED_UNIT(#106)SOLID_ANGLE_UNIT()SI_UNIT($,.STERADIAN.));
#52=PRESENTATION_STYLE_ASSIGNMENT((#112));
#53=TRIMMED_CURVE('',#113,(PARAMETER_VALUE(0.0)),(PARAMETER_VALUE(6.28318530717959)),.T.,.UNSPECIFIED.);
#54=PRESENTATION_STYLE_ASSIGNMENT((#114));
#55=ADVANCED_FACE('',(#115),#116,.F.);
#56=PRESENTATION_STYLE_ASSIGNMENT((#117));
#57=TRIMMED_CURVE('',#118,(PARAMETER_VALUE(0.0)),(PARAMETER_VALUE(6.28318530717959)),.T.,.UNSPECIFIED.);
#58=PRESENTATION_STYLE_ASSIGNMENT((#119));
#59=ADVANCED_FACE('',(#120),#121,.F.);
#60=PRESENTATION_STYLE_ASSIGNMENT((#122));
#61=ADVANCED_FACE('',(#123),#124,.F.);
#62=PRESENTATION_STYLE_ASSIGNMENT((#125));
#63=ADVANCED_FACE('',(#126,#127,#128,#129,#130),#131,.T.);
#64=PRESENTATION_STYLE_ASSIGNMENT((#132));
#65=ADVANCED_FACE('',(#133),#134,.T.);
#66=PRESENTATION_STYLE_ASSIGNMENT((#135));
#67=ADVANCED_FACE('',(#136,#137,#138,#139,#140),#141,.F.);
#68=PRESENTATION_STYLE_ASSIGNMENT((#142));
#69=ADVANCED_FACE('',(#143),#144,.F.);
#70=PRESENTATION_STYLE_ASSIGNMENT((#145));
#71=ADVANCED_FACE('',(#146),#147,.T.);
#72=PRESENTATION_STYLE_ASSIGNMENT((#148));
#73=ADVANCED_FACE('',(#149),#150,.T.);
#74=PRESENTATION_STYLE_ASSIGNMENT((#151));
#75=TRIMMED_CURVE('',#152,(PARAMETER_VALUE(0.0)),(PARAMETER_VALUE(6.28318530717959)),.T.,.UNSPECIFIED.);
#76=PRESENTATION_STYLE_ASSIGNMENT((#153));
#77=MANIFOLD_SOLID_BREP('1',#154);
#78=PRESENTATION_STYLE_ASSIGNMENT((#155));
#79=ADVANCED_FACE('',(#156),#157,.F.);
#80=PRESENTATION_STYLE_ASSIGNMENT((#158));
#81=ADVANCED_FACE('',(#159),#160,.T.);
#82=PRESENTATION_STYLE_ASSIGNMENT((#161));
#83=TRIMMED_CURVE('',#162,(PARAMETER_VALUE(0.0)),(PARAMETER_VALUE(6.28318530717959)),.T.,.UNSPECIFIED.);
#84=PRESENTATION_STYLE_ASSIGNMENT((#163));
#85=ADVANCED_FACE('',(#164),#165,.T.);
#86=PRESENTATION_STYLE_ASSIGNMENT((#166));
#87=ADVANCED_FACE('',(#167),#168,.F.);
#88=PRESENTATION_STYLE_ASSIGNMENT((#169));
#89=ADVANCED_FACE('',(#170),#171,.F.);
#90=PRESENTATION_STYLE_ASSIGNMENT((#172));
#91=ADVANCED_FACE('',(#173),#174,.F.);
#92=PRODUCT('1','1','PART-1-DESC',(#175));
#93=PRODUCT_DEFINITION('NONE','NONE',#176,#2);
#94=AXIS2_PLACEMENT_3D('',#177,#178,#179);
#95=PRODUCT('2','2','PART-2-DESC',(#180));
#96=PRODUCT_DEFINITION('NONE','NONE',#181,#6);
#97=GEOMETRIC_SET('2',(#182,#183,#184,#185));
#98=AXIS2_PLACEMENT_3D('',#186,#187,#188);
#101=LENGTH_MEASURE_WITH_UNIT(LENGTH_MEASURE(25.4),#189);
#104=DIMENSIONAL_EXPONENTS(1.0,0.0,0.0,0.0,0.0,0.0,0.0);
#106=DIMENSIONAL_EXPONENTS(0.0,0.0,0.0,0.0,0.0,0.0,0.0);
#112=CURVE_STYLE('',#190,POSITIVE_LENGTH_MEASURE(1.0E-06),#191);
#113=CIRCLE('',#192,0.28125);
#114=SURFACE_STYLE_USAGE(.BOTH.,#193);
#115=FACE_OUTER_BOUND('',#194,.T.);
#116=CYLINDRICAL_SURFACE('',#195,0.28125);
#117=CURVE_STYLE('',#196,POSITIVE_LENGTH_MEASURE(1.0E-06),#197);
#118=CIRCLE('',#198,0.28125);
#119=SURFACE_STYLE_USAGE(.BOTH.,#199);
#120=FACE_OUTER_BOUND('',#200,.T.);
#121=CYLINDRICAL_SURFACE('',#201,0.28125);
#122=SURFACE_STYLE_USAGE(.BOTH.,#202);
#123=FACE_OUTER_BOUND('',#203,.T.);
#124=CYLINDRICAL_SURFACE('',#204,0.28125);
#125=SURFACE_STYLE_USAGE(.BOTH.,#205);
#126=FACE_BOUND('',#206,.T.);
#127=FACE_BOUND('',#207,.T.);
#128=FACE_BOUND('',#208,.T.);
#129=FACE_BOUND('',#209,.T.);
#130=FACE_OUTER_BOUND('',#210,.T.);
#131=PLANE('',#211);
#132=SURFACE_STYLE_USAGE(.BOTH.,#212);
#133=FACE_OUTER_BOUND('',#213,.T.);
#134=PLANE('',#214);
#135=SURFACE_STYLE_USAGE(.BOTH.,#215);
#136=FACE_BOUND('',#216,.T.);
#137=FACE_BOUND('',#217,.T.);
#138=FACE_BOUND('',#218,.T.);
#139=FACE_BOUND('',#219,.T.);
#140=FACE_OUTER_BOUND('',#220,.T.);
#141=PLANE('',#221);
#142=SURFACE_STYLE_USAGE(.BOTH.,#222);
#143=FACE_OUTER_BOUND('',#223,.T.);
#144=CYLINDRICAL_SURFACE('',#224,0.28125);
#145=SURFACE_STYLE_USAGE(.BOTH.,#225);
#146=FACE_OUTER_BOUND('',#226,.T.);
#147=PLANE('',#227);
#148=SURFACE_STYLE_USAGE(.BOTH.,#228);
#149=FACE_OUTER_BOUND('',#229,.T.);
#150=PLANE('',#230);
#151=CURVE_STYLE('',#231,POSITIVE_LENGTH_MEASURE(1.0E-06),#232);
#152=CIRCLE('',#233,0.28125);
#153=SURFACE_STYLE_USAGE(.BOTH.,#234);
#154=CLOSED_SHELL('',(#79,#55,#69,#87,#81,#65,#73,#85,#71,#91,#59,#61,#89,#63,#67));
#155=SURFACE_STYLE_USAGE(.BOTH.,#235);
#156=FACE_OUTER_BOUND('',#236,.T.);
#157=CYLINDRICAL_SURFACE('',#237,0.28125);
#158=SURFACE_STYLE_USAGE(.BOTH.,#238);
#159=FACE_OUTER_BOUND('',#239,.T.);
#160=PLANE('',#240);
#161=CURVE_STYLE('',#241,POSITIVE_LENGTH_MEASURE(1.0E-06),#242);
#162=CIRCLE('',#243,0.28125);
#163=SURFACE_STYLE_USAGE(.BOTH.,#244);
#164=FACE_OUTER_BOUND('',#245,.T.);
#165=PLANE('',#246);
#166=SURFACE_STYLE_USAGE(.BOTH.,#247);
#167=FACE_OUTER_BOUND('',#248,.T.);
#168=CYLINDRICAL_SURFACE('',#249,0.28125);
#169=SURFACE_STYLE_USAGE(.BOTH.,#250);
#170=FACE_OUTER_BOUND('',#251,.T.);
#171=CYLINDRICAL_SURFACE('',#252,0.28125);
#172=SURFACE_STYLE_USAGE(.BOTH.,#253);
#173=FACE_OUTER_BOUND('',#254,.T.);
#174=CYLINDRICAL_SURFACE('',#255,0.28125);
#175=PRODUCT_CONTEXT('',#34,'mechanical');
#176=PRODUCT_DEFINITION_FORMATION_WITH_SPECIFIED_SOURCE(' ','NONE',#92,.NOT_KNOWN.);
#177=CARTESIAN_POINT('',(0.0,0.0,0.0));
#178=DIRECTION('',(0.0,0.0,1.0));
#179=DIRECTION('',(1.0,0.0,0.0));
#180=PRODUCT_CONTEXT('',#39,'mechanical');
#181=PRODUCT_DEFINITION_FORMATION_WITH_SPECIFIED_SOURCE(' ','NONE',#95,.NOT_KNOWN.);
#182=COMPOSITE_CURVE('',(#256),.U.);
#183=COMPOSITE_CURVE('',(#257),.U.);
#184=COMPOSITE_CURVE('',(#258),.U.);
#185=COMPOSITE_CURVE('',(#259),.U.);
#186=CARTESIAN_POINT('',(0.0,0.0,0.0));
#187=DIRECTION('',(0.0,0.0,1.0));
#188=DIRECTION('',(1.0,0.0,0.0));
#189= (NAMED_UNIT(#104)LENGTH_UNIT()SI_UNIT(.MILLI.,.METRE.));
#190=DRAUGHTING_PRE_DEFINED_CURVE_FONT('continuous');
#191=COLOUR_RGB('',1.0,1.0,1.0);
#192=AXIS2_PLACEMENT_3D('',#261,#262,#263);
#193=SURFACE_SIDE_STYLE('',(#264));
#194=EDGE_LOOP('',(#265,#266,#267,#268));
#195=AXIS2_PLACEMENT_3D('',#269,#270,#271);
#196=DRAUGHTING_PRE_DEFINED_CURVE_FONT('continuous');
#197=COLOUR_RGB('',1.0,1.0,1.0);
#198=AXIS2_PLACEMENT_3D('',#272,#273,#274);
#199=SURFACE_SIDE_STYLE('',(#275));
#200=EDGE_LOOP('',(#276,#277,#278,#279));
#201=AXIS2_PLACEMENT_3D('',#280,#281,#282);
#202=SURFACE_SIDE_STYLE('',(#283));
#203=EDGE_LOOP('',(#284,#285,#286,#287));
#204=AXIS2_PLACEMENT_3D('',#288,#289,#290);
#205=SURFACE_SIDE_STYLE('',(#291));
#206=EDGE_LOOP('',(#292,#293));
#207=EDGE_LOOP('',(#294,#295));
#208=EDGE_LOOP('',(#296,#297));
#209=EDGE_LOOP('',(#298,#299));
#210=EDGE_LOOP('',(#300,#301,#302,#303,#304));
#211=AXIS2_PLACEMENT_3D('',#305,#306,#307);
#212=SURFACE_SIDE_STYLE('',(#308));
#213=EDGE_LOOP('',(#309,#310,#311,#312));
#214=AXIS2_PLACEMENT_3D('',#313,#314,#315);
#215=SURFACE_SIDE_STYLE('',(#316));
#216=EDGE_LOOP('',(#317,#318));
#217=EDGE_LOOP('',(#319,#320));
#218=EDGE_LOOP('',(#321,#322));
#219=EDGE_LOOP('',(#323,#324));
#220=EDGE_LOOP('',(#325,#326,#327,#328,#329));
#221=AXIS2_PLACEMENT_3D('',#330,#331,#332);
#222=SURFACE_SIDE_STYLE('',(#333));
#223=EDGE_LOOP('',(#334,#335,#336,#337));
#224=AXIS2_PLACEMENT_3D('',#338,#339,#340);
#225=SURFACE_SIDE_STYLE('',(#341));
#226=EDGE_LOOP('',(#342,#343,#344,#345));
#227=AXIS2_PLACEMENT_3D('',#346,#347,#348);
#228=SURFACE_SIDE_STYLE('',(#349));
#229=EDGE_LOOP('',(#350,#351,#352,#353));
#230=AXIS2_PLACEMENT_3D('',#354,#355,#356);
#231=DRAUGHTING_PRE_DEFINED_CURVE_FONT('continuous');
#232=COLOUR_RGB('',1.0,1.0,1.0);
#233=AXIS2_PLACEMENT_3D('',#357,#358,#359);
#234=SURFACE_SIDE_STYLE('',(#360));
#235=SURFACE_SIDE_STYLE('',(#361));
#236=EDGE_LOOP('',(#362,#363,#364,#365));
#237=AXIS2_PLACEMENT_3D('',#366,#367,#368);
#238=SURFACE_SIDE_STYLE('',(#369));
#239=EDGE_LOOP('',(#370,#371,#372,#373));
#240=AXIS2_PLACEMENT_3D('',#374,#375,#376);
#241=DRAUGHTING_PRE_DEFINED_CURVE_FONT('continuous');
#242=COLOUR_RGB('',1.0,1.0,1.0);
#243=AXIS2_PLACEMENT_3D('',#377,#378,#379);
#244=SURFACE_SIDE_STYLE('',(#380));
#245=EDGE_LOOP('',(#381,#382,#383,#384));
#246=AXIS2_PLACEMENT_3D('',#385,#386,#387);
#247=SURFACE_SIDE_STYLE('',(#388));
#248=EDGE_LOOP('',(#389,#390,#391,#392));
#249=AXIS2_PLACEMENT_3D('',#393,#394,#395);
#250=SURFACE_SIDE_STYLE('',(#396));
#251=EDGE_LOOP('',(#397,#398,#399,#400));
#252=AXIS2_PLACEMENT_3D('',#401,#402,#403);
#253=SURFACE_SIDE_STYLE('',(#404));
#254=EDGE_LOOP('',(#405,#406,#407,#408));
#255=AXIS2_PLACEMENT_3D('',#409,#410,#411);
#256=COMPOSITE_CURVE_SEGMENT('',.CONTINUOUS.,.T.,#75);
#257=COMPOSITE_CURVE_SEGMENT('',.CONTINUOUS.,.T.,#57);
#258=COMPOSITE_CURVE_SEGMENT('',.CONTINUOUS.,.T.,#83);
#259=COMPOSITE_CURVE_SEGMENT('',.CONTINUOUS.,.T.,#53);
#261=CARTESIAN_POINT('',(0.8125,-3.6875,0.0));
#262=DIRECTION('',(0.0,0.0,1.0));
#263=DIRECTION('',(1.0,0.0,-0.0));
#264=SURFACE_STYLE_FILL_AREA(#412);
#265=ORIENTED_EDGE('',*,*,#413,.F.);
#266=ORIENTED_EDGE('',*,*,#414,.F.);
#267=ORIENTED_EDGE('',*,*,#415,.F.);
#268=ORIENTED_EDGE('',*,*,#416,.T.);
#269=CARTESIAN_POINT('',(0.8125,-0.8125,0.0));
#270=DIRECTION('',(-0.0,-0.0,-1.0));
#271=DIRECTION('',(1.0,0.0,0.0));
#272=CARTESIAN_POINT('',(3.6875,-0.8125,0.0));
#273=DIRECTION('',(0.0,0.0,1.0));
#274=DIRECTION('',(1.0,-3.94745964311167E-16,0.0));
#275=SURFACE_STYLE_FILL_AREA(#417);
#276=ORIENTED_EDGE('',*,*,#418,.T.);
#277=ORIENTED_EDGE('',*,*,#419,.T.);
#278=ORIENTED_EDGE('',*,*,#420,.T.);
#279=ORIENTED_EDGE('',*,*,#421,.F.);
#280=CARTESIAN_POINT('',(3.6875,-0.8125,0.0));
#281=DIRECTION('',(-0.0,-0.0,-1.0));
#282=DIRECTION('',(1.0,0.0,0.0));
#283=SURFACE_STYLE_FILL_AREA(#422);
#284=ORIENTED_EDGE('',*,*,#413,.T.);
#285=ORIENTED_EDGE('',*,*,#423,.T.);
#286=ORIENTED_EDGE('',*,*,#415,.T.);
#287=ORIENTED_EDGE('',*,*,#424,.F.);
#288=CARTESIAN_POINT('',(0.8125,-0.8125,0.0));
#289=DIRECTION('',(-0.0,-0.0,-1.0));
#290=DIRECTION('',(1.0,0.0,0.0));
#291=SURFACE_STYLE_FILL_AREA(#425);
#292=ORIENTED_EDGE('',*,*,#426,.F.);
#293=ORIENTED_EDGE('',*,*,#427,.F.);
#294=ORIENTED_EDGE('',*,*,#423,.F.);
#295=ORIENTED_EDGE('',*,*,#416,.F.);
#296=ORIENTED_EDGE('',*,*,#419,.F.);
#297=ORIENTED_EDGE('',*,*,#428,.F.);
#298=ORIENTED_EDGE('',*,*,#429,.F.);
#299=ORIENTED_EDGE('',*,*,#430,.F.);
#300=ORIENTED_EDGE('',*,*,#431,.F.);
#301=ORIENTED_EDGE('',*,*,#432,.F.);
#302=ORIENTED_EDGE('',*,*,#433,.F.);
#303=ORIENTED_EDGE('',*,*,#434,.F.);
#304=ORIENTED_EDGE('',*,*,#435,.F.);
#305=CARTESIAN_POINT('',(1.91283287177429,-1.91283287177429,0.25));
#306=DIRECTION('',(0.0,0.0,1.0));
#307=DIRECTION('',(1.0,0.0,0.0));
#308=SURFACE_STYLE_FILL_AREA(#436);
#309=ORIENTED_EDGE('',*,*,#435,.T.);
#310=ORIENTED_EDGE('',*,*,#437,.F.);
#311=ORIENTED_EDGE('',*,*,#438,.F.);
#312=ORIENTED_EDGE('',*,*,#439,.T.);
#313=CARTESIAN_POINT('',(0.0,-2.25,0.0));
#314=DIRECTION('',(-1.0,-0.0,0.0));
#315=DIRECTION('',(0.0,-1.0,-0.0));
#316=SURFACE_STYLE_FILL_AREA(#440);
#317=ORIENTED_EDGE('',*,*,#441,.T.);
#318=ORIENTED_EDGE('',*,*,#442,.T.);
#319=ORIENTED_EDGE('',*,*,#424,.T.);
#320=ORIENTED_EDGE('',*,*,#414,.T.);
#321=ORIENTED_EDGE('',*,*,#421,.T.);
#322=ORIENTED_EDGE('',*,*,#443,.T.);
#323=ORIENTED_EDGE('',*,*,#444,.T.);
#324=ORIENTED_EDGE('',*,*,#445,.T.);
#325=ORIENTED_EDGE('',*,*,#446,.T.);
#326=ORIENTED_EDGE('',*,*,#447,.T.);
#327=ORIENTED_EDGE('',*,*,#438,.T.);
#328=ORIENTED_EDGE('',*,*,#448,.T.);
#329=ORIENTED_EDGE('',*,*,#449,.T.);
#330=CARTESIAN_POINT('',(1.91283287177429,-1.91283287177429,0.0));
#331=DIRECTION('',(0.0,0.0,1.0));
#332=DIRECTION('',(1.0,0.0,0.0));
#333=SURFACE_STYLE_FILL_AREA(#450);
#334=ORIENTED_EDGE('',*,*,#418,.F.);
#335=ORIENTED_EDGE('',*,*,#443,.F.);
#336=ORIENTED_EDGE('',*,*,#420,.F.);
#337=ORIENTED_EDGE('',*,*,#428,.T.);
#338=CARTESIAN_POINT('',(3.6875,-0.8125,0.0));
#339=DIRECTION('',(-0.0,-0.0,-1.0));
#340=DIRECTION('',(1.0,0.0,0.0));
#341=SURFACE_STYLE_FILL_AREA(#451);
#342=ORIENTED_EDGE('',*,*,#432,.T.);
#343=ORIENTED_EDGE('',*,*,#452,.F.);
#344=ORIENTED_EDGE('',*,*,#446,.F.);
#345=ORIENTED_EDGE('',*,*,#453,.T.);
#346=CARTESIAN_POINT('',(3.0625,-3.0625,0.0));
#347=DIRECTION('',(0.707106781186548,-0.707106781186548,0.0));
#348=DIRECTION('',(0.707106781186548,0.707106781186548,-0.0));
#349=SURFACE_STYLE_FILL_AREA(#454);
#350=ORIENTED_EDGE('',*,*,#434,.T.);
#351=ORIENTED_EDGE('',*,*,#455,.F.);
#352=ORIENTED_EDGE('',*,*,#448,.F.);
#353=ORIENTED_EDGE('',*,*,#437,.T.);
#354=CARTESIAN_POINT('',(2.25,0.0,0.0));
#355=DIRECTION('',(0.0,1.0,0.0));
#356=DIRECTION('',(-1.0,0.0,0.0));
#357=CARTESIAN_POINT('',(0.8125,-0.8125,0.0));
#358=DIRECTION('',(0.0,0.0,1.0));
#359=DIRECTION('',(1.0,-3.94745964311167E-16,0.0));
#360=SURFACE_STYLE_FILL_AREA(#456);
#361=SURFACE_STYLE_FILL_AREA(#457);
#362=ORIENTED_EDGE('',*,*,#458,.F.);
#363=ORIENTED_EDGE('',*,*,#442,.F.);
#364=ORIENTED_EDGE('',*,*,#459,.F.);
#365=ORIENTED_EDGE('',*,*,#427,.T.);
#366=CARTESIAN_POINT('',(0.8125,-3.6875,0.0));
#367=DIRECTION('',(-0.0,-0.0,-1.0));
#368=DIRECTION('',(1.0,0.0,0.0));
#369=SURFACE_STYLE_FILL_AREA(#460);
#370=ORIENTED_EDGE('',*,*,#431,.T.);
#371=ORIENTED_EDGE('',*,*,#439,.F.);
#372=ORIENTED_EDGE('',*,*,#447,.F.);
#373=ORIENTED_EDGE('',*,*,#452,.T.);
#374=CARTESIAN_POINT('',(0.8125,-4.5,0.0));
#375=DIRECTION('',(0.0,-1.0,0.0));
#376=DIRECTION('',(1.0,0.0,-0.0));
#377=CARTESIAN_POINT('',(2.25,-2.25,0.0));
#378=DIRECTION('',(0.0,0.0,1.0));
#379=DIRECTION('',(1.0,0.0,-0.0));
#380=SURFACE_STYLE_FILL_AREA(#461);
#381=ORIENTED_EDGE('',*,*,#433,.T.);
#382=ORIENTED_EDGE('',*,*,#453,.F.);
#383=ORIENTED_EDGE('',*,*,#449,.F.);
#384=ORIENTED_EDGE('',*,*,#455,.T.);
#385=CARTESIAN_POINT('',(4.5,-0.8125,0.0));
#386=DIRECTION('',(1.0,0.0,-0.0));
#387=DIRECTION('',(-0.0,1.0,0.0));
#388=SURFACE_STYLE_FILL_AREA(#462);
#389=ORIENTED_EDGE('',*,*,#463,.F.);
#390=ORIENTED_EDGE('',*,*,#445,.F.);
#391=ORIENTED_EDGE('',*,*,#464,.F.);
#392=ORIENTED_EDGE('',*,*,#430,.T.);
#393=CARTESIAN_POINT('',(2.25,-2.25,0.0));
#394=DIRECTION('',(-0.0,-0.0,-1.0));
#395=DIRECTION('',(1.0,0.0,0.0));
#396=SURFACE_STYLE_FILL_AREA(#465);
#397=ORIENTED_EDGE('',*,*,#458,.T.);
#398=ORIENTED_EDGE('',*,*,#426,.T.);
#399=ORIENTED_EDGE('',*,*,#459,.T.);
#400=ORIENTED_EDGE('',*,*,#441,.F.);
#401=CARTESIAN_POINT('',(0.8125,-3.6875,0.0));
#402=DIRECTION('',(-0.0,-0.0,-1.0));
#403=DIRECTION('',(1.0,0.0,0.0));
#404=SURFACE_STYLE_FILL_AREA(#466);
#405=ORIENTED_EDGE('',*,*,#463,.T.);
#406=ORIENTED_EDGE('',*,*,#429,.T.);
#407=ORIENTED_EDGE('',*,*,#464,.T.);
#408=ORIENTED_EDGE('',*,*,#444,.F.);
#409=CARTESIAN_POINT('',(2.25,-2.25,0.0));
#410=DIRECTION('',(-0.0,-0.0,-1.0));
#411=DIRECTION('',(1.0,0.0,0.0));
#412=FILL_AREA_STYLE('',(#467));
#413=EDGE_CURVE('',#468,#469,#470,.T.);
#414=EDGE_CURVE('',#471,#468,#472,.T.);
#415=EDGE_CURVE('',#473,#471,#474,.T.);
#416=EDGE_CURVE('',#473,#469,#475,.T.);
#417=FILL_AREA_STYLE('',(#476));
#418=EDGE_CURVE('',#477,#478,#479,.T.);
#419=EDGE_CURVE('',#478,#480,#481,.T.);
#420=EDGE_CURVE('',#480,#482,#483,.T.);
#421=EDGE_CURVE('',#477,#482,#484,.T.);
#422=FILL_AREA_STYLE('',(#485));
#423=EDGE_CURVE('',#469,#473,#486,.T.);
#424=EDGE_CURVE('',#468,#471,#487,.T.);
#425=FILL_AREA_STYLE('',(#488));
#426=EDGE_CURVE('',#489,#490,#491,.T.);
#427=EDGE_CURVE('',#490,#489,#492,.T.);
#428=EDGE_CURVE('',#480,#478,#493,.T.);
#429=EDGE_CURVE('',#494,#495,#496,.T.);
#430=EDGE_CURVE('',#495,#494,#497,.T.);
#431=EDGE_CURVE('',#498,#499,#500,.T.);
#432=EDGE_CURVE('',#501,#498,#502,.T.);
#433=EDGE_CURVE('',#503,#501,#504,.T.);
#434=EDGE_CURVE('',#505,#503,#506,.T.);
#435=EDGE_CURVE('',#499,#505,#507,.T.);
#436=FILL_AREA_STYLE('',(#508));
#437=EDGE_CURVE('',#509,#505,#510,.T.);
#438=EDGE_CURVE('',#511,#509,#512,.T.);
#439=EDGE_CURVE('',#511,#499,#513,.T.);
#440=FILL_AREA_STYLE('',(#514));
#441=EDGE_CURVE('',#515,#516,#517,.T.);
#442=EDGE_CURVE('',#516,#515,#518,.T.);
#443=EDGE_CURVE('',#482,#477,#519,.T.);
#444=EDGE_CURVE('',#520,#521,#522,.T.);
#445=EDGE_CURVE('',#521,#520,#523,.T.);
#446=EDGE_CURVE('',#524,#525,#526,.T.);
#447=EDGE_CURVE('',#525,#511,#527,.T.);
#448=EDGE_CURVE('',#509,#528,#529,.T.);
#449=EDGE_CURVE('',#528,#524,#530,.T.);
#450=FILL_AREA_STYLE('',(#531));
#451=FILL_AREA_STYLE('',(#532));
#452=EDGE_CURVE('',#525,#498,#533,.T.);
#453=EDGE_CURVE('',#524,#501,#534,.T.);
#454=FILL_AREA_STYLE('',(#535));
#455=EDGE_CURVE('',#528,#503,#536,.T.);
#456=FILL_AREA_STYLE('',(#537));
#457=FILL_AREA_STYLE('',(#538));
#458=EDGE_CURVE('',#515,#489,#539,.T.);
#459=EDGE_CURVE('',#490,#516,#540,.T.);
#460=FILL_AREA_STYLE('',(#541));
#461=FILL_AREA_STYLE('',(#542));
#462=FILL_AREA_STYLE('',(#543));
#463=EDGE_CURVE('',#520,#494,#544,.T.);
#464=EDGE_CURVE('',#495,#521,#545,.T.);
#465=FILL_AREA_STYLE('',(#546));
#466=FILL_AREA_STYLE('',(#547));
#467=FILL_AREA_STYLE_COLOUR('',#548);
#468=VERTEX_POINT('',#549);
#469=VERTEX_POINT('',#550);
#470=LINE('',#551,#552);
#471=VERTEX_POINT('',#553);
#472=CIRCLE('',#554,0.28125);
#473=VERTEX_POINT('',#555);
#474=LINE('',#556,#557);
#475=CIRCLE('',#558,0.28125);
#476=FILL_AREA_STYLE_COLOUR('',#559);
#477=VERTEX_POINT('',#560);
#478=VERTEX_POINT('',#561);
#479=LINE('',#562,#563);
#480=VERTEX_POINT('',#564);
#481=CIRCLE('',#565,0.28125);
#482=VERTEX_POINT('',#566);
#483=LINE('',#567,#568);
#484=CIRCLE('',#569,0.28125);
#485=FILL_AREA_STYLE_COLOUR('',#570);
#486=CIRCLE('',#571,0.28125);
#487=CIRCLE('',#572,0.28125);
#488=FILL_AREA_STYLE_COLOUR('',#573);
#489=VERTEX_POINT('',#574);
#490=VERTEX_POINT('',#575);
#491=CIRCLE('',#576,0.28125);
#492=CIRCLE('',#577,0.28125);
#493=CIRCLE('',#578,0.28125);
#494=VERTEX_POINT('',#579);
#495=VERTEX_POINT('',#580);
#496=CIRCLE('',#581,0.28125);
#497=CIRCLE('',#582,0.28125);
#498=VERTEX_POINT('',#583);
#499=VERTEX_POINT('',#584);
#500=LINE('',#585,#586);
#501=VERTEX_POINT('',#587);
#502=LINE('',#588,#589);
#503=VERTEX_POINT('',#590);
#504=LINE('',#591,#592);
#505=VERTEX_POINT('',#593);
#506=LINE('',#594,#595);
#507=LINE('',#596,#597);
#508=FILL_AREA_STYLE_COLOUR('',#598);
#509=VERTEX_POINT('',#599);
#510=LINE('',#600,#601);
#511=VERTEX_POINT('',#602);
#512=LINE('',#603,#604);
#513=LINE('',#605,#606);
#514=FILL_AREA_STYLE_COLOUR('',#607);
#515=VERTEX_POINT('',#608);
#516=VERTEX_POINT('',#609);
#517=CIRCLE('',#610,0.28125);
#518=CIRCLE('',#611,0.28125);
#519=CIRCLE('',#612,0.28125);
#520=VERTEX_POINT('',#613);
#521=VERTEX_POINT('',#614);
#522=CIRCLE('',#615,0.28125);
#523=CIRCLE('',#616,0.28125);
#524=VERTEX_POINT('',#617);
#525=VERTEX_POINT('',#618);
#526=LINE('',#619,#620);
#527=LINE('',#621,#622);
#528=VERTEX_POINT('',#623);
#529=LINE('',#624,#625);
#530=LINE('',#626,#627);
#531=FILL_AREA_STYLE_COLOUR('',#628);
#532=FILL_AREA_STYLE_COLOUR('',#629);
#533=LINE('',#630,#631);
#534=LINE('',#632,#633);
#535=FILL_AREA_STYLE_COLOUR('',#634);
#536=LINE('',#635,#636);
#537=FILL_AREA_STYLE_COLOUR('',#637);
#538=FILL_AREA_STYLE_COLOUR('',#638);
#539=LINE('',#639,#640);
#540=LINE('',#641,#642);
#541=FILL_AREA_STYLE_COLOUR('',#643);
#542=FILL_AREA_STYLE_COLOUR('',#644);
#543=FILL_AREA_STYLE_COLOUR('',#645);
#544=LINE('',#646,#647);
#545=LINE('',#648,#649);
#546=FILL_AREA_STYLE_COLOUR('',#650);
#547=FILL_AREA_STYLE_COLOUR('',#651);
#548=COLOUR_RGB('',0.156862750649452,0.549019634723663,0.941176474094391);
#549=CARTESIAN_POINT('',(1.09375,-0.8125,0.0));
#550=CARTESIAN_POINT('',(1.09375,-0.8125,0.25));
#551=CARTESIAN_POINT('',(1.09375,-0.8125,0.0));
#552=VECTOR('',#652,1.0);
#553=CARTESIAN_POINT('',(0.53125,-0.8125,0.0));
#554=AXIS2_PLACEMENT_3D('',#653,#654,#655);
#555=CARTESIAN_POINT('',(0.53125,-0.8125,0.25));
#556=CARTESIAN_POINT('',(0.53125,-0.8125,0.0));
#557=VECTOR('',#656,1.0);
#558=AXIS2_PLACEMENT_3D('',#657,#658,#659);
#559=COLOUR_RGB('',0.156862750649452,0.549019634723663,0.941176474094391);
#560=CARTESIAN_POINT('',(3.96875,-0.8125,0.0));
#561=CARTESIAN_POINT('',(3.96875,-0.8125,0.25));
#562=CARTESIAN_POINT('',(3.96875,-0.8125,0.0));
#563=VECTOR('',#660,1.0);
#564=CARTESIAN_POINT('',(3.40625,-0.8125,0.25));
#565=AXIS2_PLACEMENT_3D('',#661,#662,#663);
#566=CARTESIAN_POINT('',(3.40625,-0.8125,0.0));
#567=CARTESIAN_POINT('',(3.40625,-0.8125,0.0));
#568=VECTOR('',#664,1.0);
#569=AXIS2_PLACEMENT_3D('',#665,#666,#667);
#570=COLOUR_RGB('',0.156862750649452,0.549019634723663,0.941176474094391);
#571=AXIS2_PLACEMENT_3D('',#668,#669,#670);
#572=AXIS2_PLACEMENT_3D('',#671,#672,#673);
#573=COLOUR_RGB('',0.156862750649452,0.549019634723663,0.941176474094391);
#574=CARTESIAN_POINT('',(1.09375,-3.6875,0.25));
#575=CARTESIAN_POINT('',(0.53125,-3.6875,0.25));
#576=AXIS2_PLACEMENT_3D('',#674,#675,#676);
#577=AXIS2_PLACEMENT_3D('',#677,#678,#679);
#578=AXIS2_PLACEMENT_3D('',#680,#681,#682);
#579=CARTESIAN_POINT('',(2.53125,-2.25,0.25));
#580=CARTESIAN_POINT('',(1.96875,-2.25,0.25));
#581=AXIS2_PLACEMENT_3D('',#683,#684,#685);
#582=AXIS2_PLACEMENT_3D('',#686,#687,#688);
#583=CARTESIAN_POINT('',(1.625,-4.5,0.25));
#584=CARTESIAN_POINT('',(0.0,-4.5,0.25));
#585=CARTESIAN_POINT('',(1.625,-4.5,0.25));
#586=VECTOR('',#689,1.0);
#587=CARTESIAN_POINT('',(4.5,-1.625,0.25));
#588=CARTESIAN_POINT('',(4.5,-1.625,0.25));
#589=VECTOR('',#690,1.0);
#590=CARTESIAN_POINT('',(4.5,0.0,0.25));
#591=CARTESIAN_POINT('',(4.5,0.0,0.25));
#592=VECTOR('',#691,1.0);
#593=CARTESIAN_POINT('',(0.0,0.0,0.25));
#594=CARTESIAN_POINT('',(0.0,0.0,0.25));
#595=VECTOR('',#692,1.0);
#596=CARTESIAN_POINT('',(0.0,-4.5,0.25));
#597=VECTOR('',#693,1.0);
#598=COLOUR_RGB('',0.156862750649452,0.549019634723663,0.941176474094391);
#599=CARTESIAN_POINT('',(0.0,0.0,0.0));
#600=CARTESIAN_POINT('',(0.0,0.0,0.0));
#601=VECTOR('',#694,1.0);
#602=CARTESIAN_POINT('',(0.0,-4.5,0.0));
#603=CARTESIAN_POINT('',(0.0,-4.5,0.0));
#604=VECTOR('',#695,1.0);
#605=CARTESIAN_POINT('',(0.0,-4.5,0.0));
#606=VECTOR('',#696,1.0);
#607=COLOUR_RGB('',0.156862750649452,0.549019634723663,0.941176474094391);
#608=CARTESIAN_POINT('',(1.09375,-3.6875,0.0));
#609=CARTESIAN_POINT('',(0.53125,-3.6875,0.0));
#610=AXIS2_PLACEMENT_3D('',#697,#698,#699);
#611=AXIS2_PLACEMENT_3D('',#700,#701,#702);
#612=AXIS2_PLACEMENT_3D('',#703,#704,#705);
#613=CARTESIAN_POINT('',(2.53125,-2.25,0.0));
#614=CARTESIAN_POINT('',(1.96875,-2.25,0.0));
#615=AXIS2_PLACEMENT_3D('',#706,#707,#708);
#616=AXIS2_PLACEMENT_3D('',#709,#710,#711);
#617=CARTESIAN_POINT('',(4.5,-1.625,0.0));
#618=CARTESIAN_POINT('',(1.625,-4.5,0.0));
#619=CARTESIAN_POINT('',(4.5,-1.625,0.0));
#620=VECTOR('',#712,1.0);
#621=CARTESIAN_POINT('',(1.625,-4.5,0.0));
#622=VECTOR('',#713,1.0);
#623=CARTESIAN_POINT('',(4.5,0.0,0.0));
#624=CARTESIAN_POINT('',(0.0,0.0,0.0));
#625=VECTOR('',#714,1.0);
#626=CARTESIAN_POINT('',(4.5,0.0,0.0));
#627=VECTOR('',#715,1.0);
#628=COLOUR_RGB('',0.156862750649452,0.549019634723663,0.941176474094391);
#629=COLOUR_RGB('',0.156862750649452,0.549019634723663,0.941176474094391);
#630=CARTESIAN_POINT('',(1.625,-4.5,0.0));
#631=VECTOR('',#716,1.0);
#632=CARTESIAN_POINT('',(4.5,-1.625,0.0));
#633=VECTOR('',#717,1.0);
#634=COLOUR_RGB('',0.156862750649452,0.549019634723663,0.941176474094391);
#635=CARTESIAN_POINT('',(4.5,0.0,0.0));
#636=VECTOR('',#718,1.0);
#637=COLOUR_RGB('',0.156862750649452,0.549019634723663,0.941176474094391);
#638=COLOUR_RGB('',0.156862750649452,0.549019634723663,0.941176474094391);
#639=CARTESIAN_POINT('',(1.09375,-3.6875,0.0));
#640=VECTOR('',#719,1.0);
#641=CARTESIAN_POINT('',(0.53125,-3.6875,0.0));
#642=VECTOR('',#720,1.0);
#643=COLOUR_RGB('',0.156862750649452,0.549019634723663,0.941176474094391);
#644=COLOUR_RGB('',0.156862750649452,0.549019634723663,0.941176474094391);
#645=COLOUR_RGB('',0.156862750649452,0.549019634723663,0.941176474094391);
#646=CARTESIAN_POINT('',(2.53125,-2.25,0.0));
#647=VECTOR('',#721,1.0);
#648=CARTESIAN_POINT('',(1.96875,-2.25,0.0));
#649=VECTOR('',#722,1.0);
#650=COLOUR_RGB('',0.156862750649452,0.549019634723663,0.941176474094391);
#651=COLOUR_RGB('',0.156862750649452,0.549019634723663,0.941176474094391);
#652=DIRECTION('',(-0.0,-0.0,1.0));
#653=CARTESIAN_POINT('',(0.8125,-0.8125,0.0));
#654=DIRECTION('',(0.0,0.0,1.0));
#655=DIRECTION('',(1.0,0.0,-0.0));
#656=DIRECTION('',(-0.0,0.0,-1.0));
#657=CARTESIAN_POINT('',(0.8125,-0.8125,0.25));
#658=DIRECTION('',(0.0,0.0,1.0));
#659=DIRECTION('',(1.0,0.0,0.0));
#660=DIRECTION('',(-0.0,-0.0,1.0));
#661=CARTESIAN_POINT('',(3.6875,-0.8125,0.25));
#662=DIRECTION('',(0.0,0.0,1.0));
#663=DIRECTION('',(1.0,0.0,0.0));
#664=DIRECTION('',(-0.0,0.0,-1.0));
#665=CARTESIAN_POINT('',(3.6875,-0.8125,0.0));
#666=DIRECTION('',(0.0,0.0,1.0));
#667=DIRECTION('',(1.0,0.0,-0.0));
#668=CARTESIAN_POINT('',(0.8125,-0.8125,0.25));
#669=DIRECTION('',(0.0,0.0,1.0));
#670=DIRECTION('',(1.0,0.0,0.0));
#671=CARTESIAN_POINT('',(0.8125,-0.8125,0.0));
#672=DIRECTION('',(0.0,0.0,1.0));
#673=DIRECTION('',(1.0,0.0,-0.0));
#674=CARTESIAN_POINT('',(0.8125,-3.6875,0.25));
#675=DIRECTION('',(0.0,0.0,1.0));
#676=DIRECTION('',(1.0,0.0,0.0));
#677=CARTESIAN_POINT('',(0.8125,-3.6875,0.25));
#678=DIRECTION('',(0.0,0.0,1.0));
#679=DIRECTION('',(1.0,0.0,0.0));
#680=CARTESIAN_POINT('',(3.6875,-0.8125,0.25));
#681=DIRECTION('',(0.0,0.0,1.0));
#682=DIRECTION('',(1.0,0.0,0.0));
#683=CARTESIAN_POINT('',(2.25,-2.25,0.25));
#684=DIRECTION('',(0.0,0.0,1.0));
#685=DIRECTION('',(1.0,0.0,0.0));
#686=CARTESIAN_POINT('',(2.25,-2.25,0.25));
#687=DIRECTION('',(0.0,0.0,1.0));
#688=DIRECTION('',(1.0,0.0,0.0));
#689=DIRECTION('',(-1.0,0.0,0.0));
#690=DIRECTION('',(-0.707106781186548,-0.707106781186548,0.0));
#691=DIRECTION('',(0.0,-1.0,0.0));
#692=DIRECTION('',(1.0,0.0,0.0));
#693=DIRECTION('',(0.0,1.0,0.0));
#694=DIRECTION('',(0.0,0.0,1.0));
#695=DIRECTION('',(0.0,1.0,0.0));
#696=DIRECTION('',(0.0,0.0,1.0));
#697=CARTESIAN_POINT('',(0.8125,-3.6875,0.0));
#698=DIRECTION('',(0.0,0.0,1.0));
#699=DIRECTION('',(1.0,0.0,-0.0));
#700=CARTESIAN_POINT('',(0.8125,-3.6875,0.0));
#701=DIRECTION('',(0.0,0.0,1.0));
#702=DIRECTION('',(1.0,0.0,-0.0));
#703=CARTESIAN_POINT('',(3.6875,-0.8125,0.0));
#704=DIRECTION('',(0.0,0.0,1.0));
#705=DIRECTION('',(1.0,0.0,-0.0));
#706=CARTESIAN_POINT('',(2.25,-2.25,0.0));
#707=DIRECTION('',(0.0,0.0,1.0));
#708=DIRECTION('',(1.0,0.0,-0.0));
#709=CARTESIAN_POINT('',(2.25,-2.25,0.0));
#710=DIRECTION('',(0.0,0.0,1.0));
#711=DIRECTION('',(1.0,0.0,-0.0));
#712=DIRECTION('',(-0.707106781186548,-0.707106781186548,0.0));
#713=DIRECTION('',(-1.0,0.0,0.0));
#714=DIRECTION('',(1.0,0.0,0.0));
#715=DIRECTION('',(0.0,-1.0,0.0));
#716=DIRECTION('',(0.0,0.0,1.0));
#717=DIRECTION('',(0.0,0.0,1.0));
#718=DIRECTION('',(0.0,0.0,1.0));
#719=DIRECTION('',(-0.0,-0.0,1.0));
#720=DIRECTION('',(-0.0,0.0,-1.0));
#721=DIRECTION('',(-0.0,-0.0,1.0));
#722=DIRECTION('',(-0.0,0.0,-1.0));
ENDSEC;
END-ISO-10303-21;
