ISO-10303-21;
HEADER;
FILE_DESCRIPTION(('TurboCAD Mac Pro'),'Build 980');
FILE_NAME('P2079.stp','  ',(''),(''),'ACIS Interop','IMSI','TurboCAD Mac Pro BY IMSI, INCORPORATED');
FILE_SCHEMA(('automotive_design'));
ENDSEC;
DATA;
#1=MECHANICAL_DESIGN_GEOMETRIC_PRESENTATION_REPRESENTATION(' ',(#14,#15,#16,#17,#18,#19,#20,#21,#22,#23,#24,#25,#26,#27,#28,#29,#30,#31,#32),#10);
#2=PRODUCT_DEFINITION_CONTEXT('',#33,'design');
#3=APPLICATION_PROTOCOL_DEFINITION('INTERNATIONAL STANDARD','automotive_design',1994,#33);
#4=PRODUCT_CATEGORY_RELATIONSHIP('NONE','NONE',#34,#35);
#5=SHAPE_DEFINITION_REPRESENTATION(#36,#37);
#6=PRODUCT_DEFINITION_CONTEXT('',#38,'design');
#7=APPLICATION_PROTOCOL_DEFINITION('INTERNATIONAL STANDARD','automotive_design',1994,#38);
#8=PRODUCT_CATEGORY_RELATIONSHIP('NONE','NONE',#39,#40);
#9=SHAPE_DEFINITION_REPRESENTATION(#41,#42);
#10= (GEOMETRIC_REPRESENTATION_CONTEXT(3)GLOBAL_UNCERTAINTY_ASSIGNED_CONTEXT((#45))GLOBAL_UNIT_ASSIGNED_CONTEXT((#47,#48,#49))REPRESENTATION_CONTEXT('NONE','WORKSPACE'));
#14=STYLED_ITEM('',(#51),#52);
#15=STYLED_ITEM('',(#53),#54);
#16=STYLED_ITEM('',(#55),#56);
#17=STYLED_ITEM('',(#57),#58);
#18=STYLED_ITEM('',(#59),#60);
#19=STYLED_ITEM('',(#61),#62);
#20=STYLED_ITEM('',(#63),#64);
#21=STYLED_ITEM('',(#65),#66);
#22=STYLED_ITEM('',(#67),#68);
#23=STYLED_ITEM('',(#69),#70);
#24=STYLED_ITEM('',(#71),#72);
#25=STYLED_ITEM('',(#73),#74);
#26=STYLED_ITEM('',(#75),#76);
#27=STYLED_ITEM('',(#77),#78);
#28=STYLED_ITEM('',(#79),#80);
#29=STYLED_ITEM('',(#81),#82);
#30=STYLED_ITEM('',(#83),#84);
#31=STYLED_ITEM('',(#85),#86);
#32=STYLED_ITEM('',(#87),#88);
#33=APPLICATION_CONTEXT(' ');
#34=PRODUCT_CATEGORY('part','NONE');
#35=PRODUCT_RELATED_PRODUCT_CATEGORY('detail',' ',(#89));
#36=PRODUCT_DEFINITION_SHAPE('NONE','NONE',#90);
#37=ADVANCED_BREP_SHAPE_REPRESENTATION('1',(#88,#91),#10);
#38=APPLICATION_CONTEXT(' ');
#39=PRODUCT_CATEGORY('part','NONE');
#40=PRODUCT_RELATED_PRODUCT_CATEGORY('detail',' ',(#92));
#41=PRODUCT_DEFINITION_SHAPE('NONE','NONE',#93);
#42=GEOMETRICALLY_BOUNDED_SURFACE_SHAPE_REPRESENTATION('2',(#94,#95),#10);
#45=UNCERTAINTY_MEASURE_WITH_UNIT(LENGTH_MEASURE(1.0E-06),#47,'','');
#47= (CONVERSION_BASED_UNIT('INCH',#98)LENGTH_UNIT()NAMED_UNIT(#101));
#48= (NAMED_UNIT(#103)PLANE_ANGLE_UNIT()SI_UNIT($,.RADIAN.));
#49= (NAMED_UNIT(#103)SOLID_ANGLE_UNIT()SI_UNIT($,.STERADIAN.));
#51=PRESENTATION_STYLE_ASSIGNMENT((#109));
#52=ADVANCED_FACE('',(#110),#111,.F.);
#53=PRESENTATION_STYLE_ASSIGNMENT((#112));
#54=ADVANCED_FACE('',(#113),#114,.T.);
#55=PRESENTATION_STYLE_ASSIGNMENT((#115));
#56=ADVANCED_FACE('',(#116,#117,#118,#119,#120),#121,.F.);
#57=PRESENTATION_STYLE_ASSIGNMENT((#122));
#58=ADVANCED_FACE('',(#123),#124,.F.);
#59=PRESENTATION_STYLE_ASSIGNMENT((#125));
#60=ADVANCED_FACE('',(#126),#127,.T.);
#61=PRESENTATION_STYLE_ASSIGNMENT((#128));
#62=ADVANCED_FACE('',(#129),#130,.T.);
#63=PRESENTATION_STYLE_ASSIGNMENT((#131));
#64=ADVANCED_FACE('',(#132),#133,.F.);
#65=PRESENTATION_STYLE_ASSIGNMENT((#134));
#66=ADVANCED_FACE('',(#135),#136,.F.);
#67=PRESENTATION_STYLE_ASSIGNMENT((#137));
#68=ADVANCED_FACE('',(#138),#139,.T.);
#69=PRESENTATION_STYLE_ASSIGNMENT((#140));
#70=ADVANCED_FACE('',(#141),#142,.F.);
#71=PRESENTATION_STYLE_ASSIGNMENT((#143));
#72=TRIMMED_CURVE('',#144,(PARAMETER_VALUE(0.0)),(PARAMETER_VALUE(6.28318530717959)),.T.,.UNSPECIFIED.);
#73=PRESENTATION_STYLE_ASSIGNMENT((#145));
#74=ADVANCED_FACE('',(#146),#147,.F.);
#75=PRESENTATION_STYLE_ASSIGNMENT((#148));
#76=TRIMMED_CURVE('',#149,(PARAMETER_VALUE(0.0)),(PARAMETER_VALUE(6.28318530717959)),.T.,.UNSPECIFIED.);
#77=PRESENTATION_STYLE_ASSIGNMENT((#150));
#78=ADVANCED_FACE('',(#151),#152,.F.);
#79=PRESENTATION_STYLE_ASSIGNMENT((#153));
#80=TRIMMED_CURVE('',#154,(PARAMETER_VALUE(0.0)),(PARAMETER_VALUE(6.28318530717959)),.T.,.UNSPECIFIED.);
#81=PRESENTATION_STYLE_ASSIGNMENT((#155));
#82=TRIMMED_CURVE('',#156,(PARAMETER_VALUE(0.0)),(PARAMETER_VALUE(6.28318530717959)),.T.,.UNSPECIFIED.);
#83=PRESENTATION_STYLE_ASSIGNMENT((#157));
#84=ADVANCED_FACE('',(#158),#159,.F.);
#85=PRESENTATION_STYLE_ASSIGNMENT((#160));
#86=ADVANCED_FACE('',(#161,#162,#163,#164,#165),#166,.T.);
#87=PRESENTATION_STYLE_ASSIGNMENT((#167));
#88=MANIFOLD_SOLID_BREP('1',#168);
#89=PRODUCT('1','1','PART-1-DESC',(#169));
#90=PRODUCT_DEFINITION('NONE','NONE',#170,#2);
#91=AXIS2_PLACEMENT_3D('',#171,#172,#173);
#92=PRODUCT('2','2','PART-2-DESC',(#174));
#93=PRODUCT_DEFINITION('NONE','NONE',#175,#6);
#94=GEOMETRIC_SET('2',(#176,#177,#178,#179));
#95=AXIS2_PLACEMENT_3D('',#180,#181,#182);
#98=LENGTH_MEASURE_WITH_UNIT(LENGTH_MEASURE(25.4),#183);
#101=DIMENSIONAL_EXPONENTS(1.0,0.0,0.0,0.0,0.0,0.0,0.0);
#103=DIMENSIONAL_EXPONENTS(0.0,0.0,0.0,0.0,0.0,0.0,0.0);
#109=SURFACE_STYLE_USAGE(.BOTH.,#184);
#110=FACE_OUTER_BOUND('',#185,.T.);
#111=CYLINDRICAL_SURFACE('',#186,0.28125);
#112=SURFACE_STYLE_USAGE(.BOTH.,#187);
#113=FACE_OUTER_BOUND('',#188,.T.);
#114=PLANE('',#189);
#115=SURFACE_STYLE_USAGE(.BOTH.,#190);
#116=FACE_BOUND('',#191,.T.);
#117=FACE_BOUND('',#192,.T.);
#118=FACE_BOUND('',#193,.T.);
#119=FACE_BOUND('',#194,.T.);
#120=FACE_OUTER_BOUND('',#195,.T.);
#121=PLANE('',#196);
#122=SURFACE_STYLE_USAGE(.BOTH.,#197);
#123=FACE_OUTER_BOUND('',#198,.T.);
#124=CYLINDRICAL_SURFACE('',#199,0.28125);
#125=SURFACE_STYLE_USAGE(.BOTH.,#200);
#126=FACE_OUTER_BOUND('',#201,.T.);
#127=PLANE('',#202);
#128=SURFACE_STYLE_USAGE(.BOTH.,#203);
#129=FACE_OUTER_BOUND('',#204,.T.);
#130=PLANE('',#205);
#131=SURFACE_STYLE_USAGE(.BOTH.,#206);
#132=FACE_OUTER_BOUND('',#207,.T.);
#133=CYLINDRICAL_SURFACE('',#208,0.28125);
#134=SURFACE_STYLE_USAGE(.BOTH.,#209);
#135=FACE_OUTER_BOUND('',#210,.T.);
#136=CYLINDRICAL_SURFACE('',#211,0.28125);
#137=SURFACE_STYLE_USAGE(.BOTH.,#212);
#138=FACE_OUTER_BOUND('',#213,.T.);
#139=PLANE('',#214);
#140=SURFACE_STYLE_USAGE(.BOTH.,#215);
#141=FACE_OUTER_BOUND('',#216,.T.);
#142=CYLINDRICAL_SURFACE('',#217,0.28125);
#143=CURVE_STYLE('',#218,POSITIVE_LENGTH_MEASURE(1.0E-06),#219);
#144=CIRCLE('',#220,0.28125);
#145=SURFACE_STYLE_USAGE(.BOTH.,#221);
#146=FACE_OUTER_BOUND('',#222,.T.);
#147=CYLINDRICAL_SURFACE('',#223,0.28125);
#148=CURVE_STYLE('',#224,POSITIVE_LENGTH_MEASURE(1.0E-06),#225);
#149=CIRCLE('',#226,0.28125);
#150=SURFACE_STYLE_USAGE(.BOTH.,#227);
#151=FACE_OUTER_BOUND('',#228,.T.);
#152=CYLINDRICAL_SURFACE('',#229,0.28125);
#153=CURVE_STYLE('',#230,POSITIVE_LENGTH_MEASURE(1.0E-06),#231);
#154=CIRCLE('',#232,0.28125);
#155=CURVE_STYLE('',#233,POSITIVE_LENGTH_MEASURE(1.0E-06),#234);
#156=CIRCLE('',#235,0.28125);
#157=SURFACE_STYLE_USAGE(.BOTH.,#236);
#158=FACE_OUTER_BOUND('',#237,.T.);
#159=CYLINDRICAL_SURFACE('',#238,0.28125);
#160=SURFACE_STYLE_USAGE(.BOTH.,#239);
#161=FACE_BOUND('',#240,.T.);
#162=FACE_BOUND('',#241,.T.);
#163=FACE_BOUND('',#242,.T.);
#164=FACE_BOUND('',#243,.T.);
#165=FACE_OUTER_BOUND('',#244,.T.);
#166=PLANE('',#245);
#167=SURFACE_STYLE_USAGE(.BOTH.,#246);
#168=CLOSED_SHELL('',(#58,#52,#64,#74,#54,#60,#68,#62,#84,#70,#66,#78,#86,#56));
#169=PRODUCT_CONTEXT('',#33,'mechanical');
#170=PRODUCT_DEFINITION_FORMATION_WITH_SPECIFIED_SOURCE(' ','NONE',#89,.NOT_KNOWN.);
#171=CARTESIAN_POINT('',(0.0,0.0,0.0));
#172=DIRECTION('',(0.0,0.0,1.0));
#173=DIRECTION('',(1.0,0.0,0.0));
#174=PRODUCT_CONTEXT('',#38,'mechanical');
#175=PRODUCT_DEFINITION_FORMATION_WITH_SPECIFIED_SOURCE(' ','NONE',#92,.NOT_KNOWN.);
#176=COMPOSITE_CURVE('',(#247),.U.);
#177=COMPOSITE_CURVE('',(#248),.U.);
#178=COMPOSITE_CURVE('',(#249),.U.);
#179=COMPOSITE_CURVE('',(#250),.U.);
#180=CARTESIAN_POINT('',(0.0,0.0,0.0));
#181=DIRECTION('',(0.0,0.0,1.0));
#182=DIRECTION('',(1.0,0.0,0.0));
#183= (NAMED_UNIT(#101)LENGTH_UNIT()SI_UNIT(.MILLI.,.METRE.));
#184=SURFACE_SIDE_STYLE('',(#252));
#185=EDGE_LOOP('',(#253,#254,#255,#256));
#186=AXIS2_PLACEMENT_3D('',#257,#258,#259);
#187=SURFACE_SIDE_STYLE('',(#260));
#188=EDGE_LOOP('',(#261,#262,#263,#264));
#189=AXIS2_PLACEMENT_3D('',#265,#266,#267);
#190=SURFACE_SIDE_STYLE('',(#268));
#191=EDGE_LOOP('',(#269,#270));
#192=EDGE_LOOP('',(#271,#272));
#193=EDGE_LOOP('',(#273,#274));
#194=EDGE_LOOP('',(#275,#276));
#195=EDGE_LOOP('',(#277,#278,#279,#280));
#196=AXIS2_PLACEMENT_3D('',#281,#282,#283);
#197=SURFACE_SIDE_STYLE('',(#284));
#198=EDGE_LOOP('',(#285,#286,#287,#288));
#199=AXIS2_PLACEMENT_3D('',#289,#290,#291);
#200=SURFACE_SIDE_STYLE('',(#292));
#201=EDGE_LOOP('',(#293,#294,#295,#296));
#202=AXIS2_PLACEMENT_3D('',#297,#298,#299);
#203=SURFACE_SIDE_STYLE('',(#300));
#204=EDGE_LOOP('',(#301,#302,#303,#304));
#205=AXIS2_PLACEMENT_3D('',#305,#306,#307);
#206=SURFACE_SIDE_STYLE('',(#308));
#207=EDGE_LOOP('',(#309,#310,#311,#312));
#208=AXIS2_PLACEMENT_3D('',#313,#314,#315);
#209=SURFACE_SIDE_STYLE('',(#316));
#210=EDGE_LOOP('',(#317,#318,#319,#320));
#211=AXIS2_PLACEMENT_3D('',#321,#322,#323);
#212=SURFACE_SIDE_STYLE('',(#324));
#213=EDGE_LOOP('',(#325,#326,#327,#328));
#214=AXIS2_PLACEMENT_3D('',#329,#330,#331);
#215=SURFACE_SIDE_STYLE('',(#332));
#216=EDGE_LOOP('',(#333,#334,#335,#336));
#217=AXIS2_PLACEMENT_3D('',#337,#338,#339);
#218=DRAUGHTING_PRE_DEFINED_CURVE_FONT('continuous');
#219=COLOUR_RGB('',1.0,1.0,1.0);
#220=AXIS2_PLACEMENT_3D('',#340,#341,#342);
#221=SURFACE_SIDE_STYLE('',(#343));
#222=EDGE_LOOP('',(#344,#345,#346,#347));
#223=AXIS2_PLACEMENT_3D('',#348,#349,#350);
#224=DRAUGHTING_PRE_DEFINED_CURVE_FONT('continuous');
#225=COLOUR_RGB('',1.0,1.0,1.0);
#226=AXIS2_PLACEMENT_3D('',#351,#352,#353);
#227=SURFACE_SIDE_STYLE('',(#354));
#228=EDGE_LOOP('',(#355,#356,#357,#358));
#229=AXIS2_PLACEMENT_3D('',#359,#360,#361);
#230=DRAUGHTING_PRE_DEFINED_CURVE_FONT('continuous');
#231=COLOUR_RGB('',1.0,1.0,1.0);
#232=AXIS2_PLACEMENT_3D('',#362,#363,#364);
#233=DRAUGHTING_PRE_DEFINED_CURVE_FONT('continuous');
#234=COLOUR_RGB('',1.0,1.0,1.0);
#235=AXIS2_PLACEMENT_3D('',#365,#366,#367);
#236=SURFACE_SIDE_STYLE('',(#368));
#237=EDGE_LOOP('',(#369,#370,#371,#372));
#238=AXIS2_PLACEMENT_3D('',#373,#374,#375);
#239=SURFACE_SIDE_STYLE('',(#376));
#240=EDGE_LOOP('',(#377,#378));
#241=EDGE_LOOP('',(#379,#380));
#242=EDGE_LOOP('',(#381,#382));
#243=EDGE_LOOP('',(#383,#384));
#244=EDGE_LOOP('',(#385,#386,#387,#388));
#245=AXIS2_PLACEMENT_3D('',#389,#390,#391);
#246=SURFACE_SIDE_STYLE('',(#392));
#247=COMPOSITE_CURVE_SEGMENT('',.CONTINUOUS.,.T.,#82);
#248=COMPOSITE_CURVE_SEGMENT('',.CONTINUOUS.,.T.,#80);
#249=COMPOSITE_CURVE_SEGMENT('',.CONTINUOUS.,.T.,#72);
#250=COMPOSITE_CURVE_SEGMENT('',.CONTINUOUS.,.T.,#76);
#252=SURFACE_STYLE_FILL_AREA(#393);
#253=ORIENTED_EDGE('',*,*,#394,.F.);
#254=ORIENTED_EDGE('',*,*,#395,.F.);
#255=ORIENTED_EDGE('',*,*,#396,.F.);
#256=ORIENTED_EDGE('',*,*,#397,.T.);
#257=CARTESIAN_POINT('',(-0.8125,0.9375,0.0));
#258=DIRECTION('',(-0.0,-0.0,-1.0));
#259=DIRECTION('',(1.0,0.0,0.0));
#260=SURFACE_STYLE_FILL_AREA(#398);
#261=ORIENTED_EDGE('',*,*,#399,.T.);
#262=ORIENTED_EDGE('',*,*,#400,.F.);
#263=ORIENTED_EDGE('',*,*,#401,.F.);
#264=ORIENTED_EDGE('',*,*,#402,.T.);
#265=CARTESIAN_POINT('',(-1.625,4.44089209850063E-16,0.0));
#266=DIRECTION('',(-1.0,-0.0,0.0));
#267=DIRECTION('',(0.0,-1.0,-0.0));
#268=SURFACE_STYLE_FILL_AREA(#403);
#269=ORIENTED_EDGE('',*,*,#404,.T.);
#270=ORIENTED_EDGE('',*,*,#405,.T.);
#271=ORIENTED_EDGE('',*,*,#406,.T.);
#272=ORIENTED_EDGE('',*,*,#395,.T.);
#273=ORIENTED_EDGE('',*,*,#407,.T.);
#274=ORIENTED_EDGE('',*,*,#408,.T.);
#275=ORIENTED_EDGE('',*,*,#409,.T.);
#276=ORIENTED_EDGE('',*,*,#410,.T.);
#277=ORIENTED_EDGE('',*,*,#411,.T.);
#278=ORIENTED_EDGE('',*,*,#401,.T.);
#279=ORIENTED_EDGE('',*,*,#412,.T.);
#280=ORIENTED_EDGE('',*,*,#413,.T.);
#281=CARTESIAN_POINT('',(2.77555756156289E-16,2.53444852086147E-16,0.0));
#282=DIRECTION('',(0.0,0.0,1.0));
#283=DIRECTION('',(1.0,0.0,0.0));
#284=SURFACE_STYLE_FILL_AREA(#414);
#285=ORIENTED_EDGE('',*,*,#415,.F.);
#286=ORIENTED_EDGE('',*,*,#405,.F.);
#287=ORIENTED_EDGE('',*,*,#416,.F.);
#288=ORIENTED_EDGE('',*,*,#417,.T.);
#289=CARTESIAN_POINT('',(0.812499999999998,-0.9375,0.0));
#290=DIRECTION('',(-0.0,-0.0,-1.0));
#291=DIRECTION('',(1.0,0.0,0.0));
#292=SURFACE_STYLE_FILL_AREA(#418);
#293=ORIENTED_EDGE('',*,*,#419,.T.);
#294=ORIENTED_EDGE('',*,*,#420,.F.);
#295=ORIENTED_EDGE('',*,*,#412,.F.);
#296=ORIENTED_EDGE('',*,*,#400,.T.);
#297=CARTESIAN_POINT('',(4.44089209850063E-16,1.75,0.0));
#298=DIRECTION('',(0.0,1.0,0.0));
#299=DIRECTION('',(-1.0,0.0,0.0));
#300=SURFACE_STYLE_FILL_AREA(#421);
#301=ORIENTED_EDGE('',*,*,#422,.T.);
#302=ORIENTED_EDGE('',*,*,#402,.F.);
#303=ORIENTED_EDGE('',*,*,#411,.F.);
#304=ORIENTED_EDGE('',*,*,#423,.T.);
#305=CARTESIAN_POINT('',(0.0,-1.75,0.0));
#306=DIRECTION('',(-2.73285667600039E-16,-1.0,0.0));
#307=DIRECTION('',(1.0,-2.73285667600039E-16,-0.0));
#308=SURFACE_STYLE_FILL_AREA(#424);
#309=ORIENTED_EDGE('',*,*,#425,.F.);
#310=ORIENTED_EDGE('',*,*,#408,.F.);
#311=ORIENTED_EDGE('',*,*,#426,.F.);
#312=ORIENTED_EDGE('',*,*,#427,.T.);
#313=CARTESIAN_POINT('',(0.812499999999999,0.9375,0.0));
#314=DIRECTION('',(-0.0,-0.0,-1.0));
#315=DIRECTION('',(1.0,0.0,0.0));
#316=SURFACE_STYLE_FILL_AREA(#428);
#317=ORIENTED_EDGE('',*,*,#394,.T.);
#318=ORIENTED_EDGE('',*,*,#429,.T.);
#319=ORIENTED_EDGE('',*,*,#396,.T.);
#320=ORIENTED_EDGE('',*,*,#406,.F.);
#321=CARTESIAN_POINT('',(-0.8125,0.9375,0.0));
#322=DIRECTION('',(-0.0,-0.0,-1.0));
#323=DIRECTION('',(1.0,0.0,0.0));
#324=SURFACE_STYLE_FILL_AREA(#430);
#325=ORIENTED_EDGE('',*,*,#431,.T.);
#326=ORIENTED_EDGE('',*,*,#423,.F.);
#327=ORIENTED_EDGE('',*,*,#413,.F.);
#328=ORIENTED_EDGE('',*,*,#420,.T.);
#329=CARTESIAN_POINT('',(1.625,0.0,0.0));
#330=DIRECTION('',(1.0,-2.53765262771464E-16,0.0));
#331=DIRECTION('',(2.53765262771464E-16,1.0,-0.0));
#332=SURFACE_STYLE_FILL_AREA(#432);
#333=ORIENTED_EDGE('',*,*,#425,.T.);
#334=ORIENTED_EDGE('',*,*,#433,.T.);
#335=ORIENTED_EDGE('',*,*,#426,.T.);
#336=ORIENTED_EDGE('',*,*,#407,.F.);
#337=CARTESIAN_POINT('',(0.812499999999999,0.9375,0.0));
#338=DIRECTION('',(-0.0,-0.0,-1.0));
#339=DIRECTION('',(1.0,0.0,0.0));
#340=CARTESIAN_POINT('',(-0.812500000000001,-0.9375,0.0));
#341=DIRECTION('',(0.0,0.0,1.0));
#342=DIRECTION('',(1.0,-3.94745964311167E-16,0.0));
#343=SURFACE_STYLE_FILL_AREA(#434);
#344=ORIENTED_EDGE('',*,*,#435,.F.);
#345=ORIENTED_EDGE('',*,*,#410,.F.);
#346=ORIENTED_EDGE('',*,*,#436,.F.);
#347=ORIENTED_EDGE('',*,*,#437,.T.);
#348=CARTESIAN_POINT('',(-0.812500000000001,-0.9375,0.0));
#349=DIRECTION('',(-0.0,-0.0,-1.0));
#350=DIRECTION('',(1.0,0.0,0.0));
#351=CARTESIAN_POINT('',(0.812499999999998,-0.9375,0.0));
#352=DIRECTION('',(0.0,0.0,1.0));
#353=DIRECTION('',(1.0,-3.94745964311167E-16,0.0));
#354=SURFACE_STYLE_FILL_AREA(#438);
#355=ORIENTED_EDGE('',*,*,#415,.T.);
#356=ORIENTED_EDGE('',*,*,#439,.T.);
#357=ORIENTED_EDGE('',*,*,#416,.T.);
#358=ORIENTED_EDGE('',*,*,#404,.F.);
#359=CARTESIAN_POINT('',(0.812499999999998,-0.9375,0.0));
#360=DIRECTION('',(-0.0,-0.0,-1.0));
#361=DIRECTION('',(1.0,0.0,0.0));
#362=CARTESIAN_POINT('',(0.812499999999999,0.9375,0.0));
#363=DIRECTION('',(0.0,0.0,1.0));
#364=DIRECTION('',(1.0,-3.94745964311167E-16,0.0));
#365=CARTESIAN_POINT('',(-0.8125,0.9375,0.0));
#366=DIRECTION('',(0.0,0.0,1.0));
#367=DIRECTION('',(1.0,-3.94745964311167E-16,0.0));
#368=SURFACE_STYLE_FILL_AREA(#440);
#369=ORIENTED_EDGE('',*,*,#435,.T.);
#370=ORIENTED_EDGE('',*,*,#441,.T.);
#371=ORIENTED_EDGE('',*,*,#436,.T.);
#372=ORIENTED_EDGE('',*,*,#409,.F.);
#373=CARTESIAN_POINT('',(-0.812500000000001,-0.9375,0.0));
#374=DIRECTION('',(-0.0,-0.0,-1.0));
#375=DIRECTION('',(1.0,0.0,0.0));
#376=SURFACE_STYLE_FILL_AREA(#442);
#377=ORIENTED_EDGE('',*,*,#439,.F.);
#378=ORIENTED_EDGE('',*,*,#417,.F.);
#379=ORIENTED_EDGE('',*,*,#429,.F.);
#380=ORIENTED_EDGE('',*,*,#397,.F.);
#381=ORIENTED_EDGE('',*,*,#433,.F.);
#382=ORIENTED_EDGE('',*,*,#427,.F.);
#383=ORIENTED_EDGE('',*,*,#441,.F.);
#384=ORIENTED_EDGE('',*,*,#437,.F.);
#385=ORIENTED_EDGE('',*,*,#399,.F.);
#386=ORIENTED_EDGE('',*,*,#422,.F.);
#387=ORIENTED_EDGE('',*,*,#431,.F.);
#388=ORIENTED_EDGE('',*,*,#419,.F.);
#389=CARTESIAN_POINT('',(2.77555756156289E-16,2.53444852086147E-16,0.25));
#390=DIRECTION('',(0.0,0.0,1.0));
#391=DIRECTION('',(1.0,0.0,0.0));
#392=SURFACE_STYLE_FILL_AREA(#443);
#393=FILL_AREA_STYLE('',(#444));
#394=EDGE_CURVE('',#445,#446,#447,.T.);
#395=EDGE_CURVE('',#448,#445,#449,.T.);
#396=EDGE_CURVE('',#450,#448,#451,.T.);
#397=EDGE_CURVE('',#450,#446,#452,.T.);
#398=FILL_AREA_STYLE('',(#453));
#399=EDGE_CURVE('',#454,#455,#456,.T.);
#400=EDGE_CURVE('',#457,#455,#458,.T.);
#401=EDGE_CURVE('',#459,#457,#460,.T.);
#402=EDGE_CURVE('',#459,#454,#461,.T.);
#403=FILL_AREA_STYLE('',(#462));
#404=EDGE_CURVE('',#463,#464,#465,.T.);
#405=EDGE_CURVE('',#464,#463,#466,.T.);
#406=EDGE_CURVE('',#445,#448,#467,.T.);
#407=EDGE_CURVE('',#468,#469,#470,.T.);
#408=EDGE_CURVE('',#469,#468,#471,.T.);
#409=EDGE_CURVE('',#472,#473,#474,.T.);
#410=EDGE_CURVE('',#473,#472,#475,.T.);
#411=EDGE_CURVE('',#476,#459,#477,.T.);
#412=EDGE_CURVE('',#457,#478,#479,.T.);
#413=EDGE_CURVE('',#478,#476,#480,.T.);
#414=FILL_AREA_STYLE('',(#481));
#415=EDGE_CURVE('',#463,#482,#483,.T.);
#416=EDGE_CURVE('',#484,#464,#485,.T.);
#417=EDGE_CURVE('',#484,#482,#486,.T.);
#418=FILL_AREA_STYLE('',(#487));
#419=EDGE_CURVE('',#455,#488,#489,.T.);
#420=EDGE_CURVE('',#478,#488,#490,.T.);
#421=FILL_AREA_STYLE('',(#491));
#422=EDGE_CURVE('',#492,#454,#493,.T.);
#423=EDGE_CURVE('',#476,#492,#494,.T.);
#424=FILL_AREA_STYLE('',(#495));
#425=EDGE_CURVE('',#468,#496,#497,.T.);
#426=EDGE_CURVE('',#498,#469,#499,.T.);
#427=EDGE_CURVE('',#498,#496,#500,.T.);
#428=FILL_AREA_STYLE('',(#501));
#429=EDGE_CURVE('',#446,#450,#502,.T.);
#430=FILL_AREA_STYLE('',(#503));
#431=EDGE_CURVE('',#488,#492,#504,.T.);
#432=FILL_AREA_STYLE('',(#505));
#433=EDGE_CURVE('',#496,#498,#506,.T.);
#434=FILL_AREA_STYLE('',(#507));
#435=EDGE_CURVE('',#472,#508,#509,.T.);
#436=EDGE_CURVE('',#510,#473,#511,.T.);
#437=EDGE_CURVE('',#510,#508,#512,.T.);
#438=FILL_AREA_STYLE('',(#513));
#439=EDGE_CURVE('',#482,#484,#514,.T.);
#440=FILL_AREA_STYLE('',(#515));
#441=EDGE_CURVE('',#508,#510,#516,.T.);
#442=FILL_AREA_STYLE('',(#517));
#443=FILL_AREA_STYLE('',(#518));
#444=FILL_AREA_STYLE_COLOUR('',#519);
#445=VERTEX_POINT('',#520);
#446=VERTEX_POINT('',#521);
#447=LINE('',#522,#523);
#448=VERTEX_POINT('',#524);
#449=CIRCLE('',#525,0.28125);
#450=VERTEX_POINT('',#526);
#451=LINE('',#527,#528);
#452=CIRCLE('',#529,0.28125);
#453=FILL_AREA_STYLE_COLOUR('',#530);
#454=VERTEX_POINT('',#531);
#455=VERTEX_POINT('',#532);
#456=LINE('',#533,#534);
#457=VERTEX_POINT('',#535);
#458=LINE('',#536,#537);
#459=VERTEX_POINT('',#538);
#460=LINE('',#539,#540);
#461=LINE('',#541,#542);
#462=FILL_AREA_STYLE_COLOUR('',#543);
#463=VERTEX_POINT('',#544);
#464=VERTEX_POINT('',#545);
#465=CIRCLE('',#546,0.28125);
#466=CIRCLE('',#547,0.28125);
#467=CIRCLE('',#548,0.28125);
#468=VERTEX_POINT('',#549);
#469=VERTEX_POINT('',#550);
#470=CIRCLE('',#551,0.28125);
#471=CIRCLE('',#552,0.28125);
#472=VERTEX_POINT('',#553);
#473=VERTEX_POINT('',#554);
#474=CIRCLE('',#555,0.28125);
#475=CIRCLE('',#556,0.28125);
#476=VERTEX_POINT('',#557);
#477=LINE('',#558,#559);
#478=VERTEX_POINT('',#560);
#479=LINE('',#561,#562);
#480=LINE('',#563,#564);
#481=FILL_AREA_STYLE_COLOUR('',#565);
#482=VERTEX_POINT('',#566);
#483=LINE('',#567,#568);
#484=VERTEX_POINT('',#569);
#485=LINE('',#570,#571);
#486=CIRCLE('',#572,0.28125);
#487=FILL_AREA_STYLE_COLOUR('',#573);
#488=VERTEX_POINT('',#574);
#489=LINE('',#575,#576);
#490=LINE('',#577,#578);
#491=FILL_AREA_STYLE_COLOUR('',#579);
#492=VERTEX_POINT('',#580);
#493=LINE('',#581,#582);
#494=LINE('',#583,#584);
#495=FILL_AREA_STYLE_COLOUR('',#585);
#496=VERTEX_POINT('',#586);
#497=LINE('',#587,#588);
#498=VERTEX_POINT('',#589);
#499=LINE('',#590,#591);
#500=CIRCLE('',#592,0.28125);
#501=FILL_AREA_STYLE_COLOUR('',#593);
#502=CIRCLE('',#594,0.28125);
#503=FILL_AREA_STYLE_COLOUR('',#595);
#504=LINE('',#596,#597);
#505=FILL_AREA_STYLE_COLOUR('',#598);
#506=CIRCLE('',#599,0.28125);
#507=FILL_AREA_STYLE_COLOUR('',#600);
#508=VERTEX_POINT('',#601);
#509=LINE('',#602,#603);
#510=VERTEX_POINT('',#604);
#511=LINE('',#605,#606);
#512=CIRCLE('',#607,0.28125);
#513=FILL_AREA_STYLE_COLOUR('',#608);
#514=CIRCLE('',#609,0.28125);
#515=FILL_AREA_STYLE_COLOUR('',#610);
#516=CIRCLE('',#611,0.28125);
#517=FILL_AREA_STYLE_COLOUR('',#612);
#518=FILL_AREA_STYLE_COLOUR('',#613);
#519=COLOUR_RGB('',0.156862750649452,0.549019634723663,0.941176474094391);
#520=CARTESIAN_POINT('',(-0.53125,0.9375,0.0));
#521=CARTESIAN_POINT('',(-0.53125,0.9375,0.25));
#522=CARTESIAN_POINT('',(-0.53125,0.9375,0.0));
#523=VECTOR('',#614,1.0);
#524=CARTESIAN_POINT('',(-1.09375,0.9375,0.0));
#525=AXIS2_PLACEMENT_3D('',#615,#616,#617);
#526=CARTESIAN_POINT('',(-1.09375,0.9375,0.25));
#527=CARTESIAN_POINT('',(-1.09375,0.9375,0.0));
#528=VECTOR('',#618,1.0);
#529=AXIS2_PLACEMENT_3D('',#619,#620,#621);
#530=COLOUR_RGB('',0.156862750649452,0.549019634723663,0.941176474094391);
#531=CARTESIAN_POINT('',(-1.625,-1.75,0.25));
#532=CARTESIAN_POINT('',(-1.625,1.75,0.25));
#533=CARTESIAN_POINT('',(-1.625,-1.75,0.25));
#534=VECTOR('',#622,1.0);
#535=CARTESIAN_POINT('',(-1.625,1.75,0.0));
#536=CARTESIAN_POINT('',(-1.625,1.75,0.0));
#537=VECTOR('',#623,1.0);
#538=CARTESIAN_POINT('',(-1.625,-1.75,0.0));
#539=CARTESIAN_POINT('',(-1.625,-1.75,0.0));
#540=VECTOR('',#624,1.0);
#541=CARTESIAN_POINT('',(-1.625,-1.75,0.0));
#542=VECTOR('',#625,1.0);
#543=COLOUR_RGB('',0.156862750649452,0.549019634723663,0.941176474094391);
#544=CARTESIAN_POINT('',(1.09375,-0.9375,0.0));
#545=CARTESIAN_POINT('',(0.531249999999998,-0.9375,0.0));
#546=AXIS2_PLACEMENT_3D('',#626,#627,#628);
#547=AXIS2_PLACEMENT_3D('',#629,#630,#631);
#548=AXIS2_PLACEMENT_3D('',#632,#633,#634);
#549=CARTESIAN_POINT('',(1.09375,0.9375,0.0));
#550=CARTESIAN_POINT('',(0.531249999999999,0.9375,0.0));
#551=AXIS2_PLACEMENT_3D('',#635,#636,#637);
#552=AXIS2_PLACEMENT_3D('',#638,#639,#640);
#553=CARTESIAN_POINT('',(-0.531250000000001,-0.9375,0.0));
#554=CARTESIAN_POINT('',(-1.09375,-0.9375,0.0));
#555=AXIS2_PLACEMENT_3D('',#641,#642,#643);
#556=AXIS2_PLACEMENT_3D('',#644,#645,#646);
#557=CARTESIAN_POINT('',(1.625,-1.75,0.0));
#558=CARTESIAN_POINT('',(1.625,-1.75,0.0));
#559=VECTOR('',#647,1.0);
#560=CARTESIAN_POINT('',(1.625,1.75,0.0));
#561=CARTESIAN_POINT('',(-1.625,1.75,0.0));
#562=VECTOR('',#648,1.0);
#563=CARTESIAN_POINT('',(1.625,1.75,0.0));
#564=VECTOR('',#649,1.0);
#565=COLOUR_RGB('',0.156862750649452,0.549019634723663,0.941176474094391);
#566=CARTESIAN_POINT('',(1.09375,-0.9375,0.25));
#567=CARTESIAN_POINT('',(1.09375,-0.9375,0.0));
#568=VECTOR('',#650,1.0);
#569=CARTESIAN_POINT('',(0.531249999999998,-0.9375,0.25));
#570=CARTESIAN_POINT('',(0.531249999999998,-0.9375,0.0));
#571=VECTOR('',#651,1.0);
#572=AXIS2_PLACEMENT_3D('',#652,#653,#654);
#573=COLOUR_RGB('',0.156862750649452,0.549019634723663,0.941176474094391);
#574=CARTESIAN_POINT('',(1.625,1.75,0.25));
#575=CARTESIAN_POINT('',(-1.625,1.75,0.25));
#576=VECTOR('',#655,1.0);
#577=CARTESIAN_POINT('',(1.625,1.75,0.0));
#578=VECTOR('',#656,1.0);
#579=COLOUR_RGB('',0.156862750649452,0.549019634723663,0.941176474094391);
#580=CARTESIAN_POINT('',(1.625,-1.75,0.25));
#581=CARTESIAN_POINT('',(1.625,-1.75,0.25));
#582=VECTOR('',#657,1.0);
#583=CARTESIAN_POINT('',(1.625,-1.75,0.0));
#584=VECTOR('',#658,1.0);
#585=COLOUR_RGB('',0.156862750649452,0.549019634723663,0.941176474094391);
#586=CARTESIAN_POINT('',(1.09375,0.9375,0.25));
#587=CARTESIAN_POINT('',(1.09375,0.9375,0.0));
#588=VECTOR('',#659,1.0);
#589=CARTESIAN_POINT('',(0.531249999999999,0.9375,0.25));
#590=CARTESIAN_POINT('',(0.531249999999999,0.9375,0.0));
#591=VECTOR('',#660,1.0);
#592=AXIS2_PLACEMENT_3D('',#661,#662,#663);
#593=COLOUR_RGB('',0.156862750649452,0.549019634723663,0.941176474094391);
#594=AXIS2_PLACEMENT_3D('',#664,#665,#666);
#595=COLOUR_RGB('',0.156862750649452,0.549019634723663,0.941176474094391);
#596=CARTESIAN_POINT('',(1.625,1.75,0.25));
#597=VECTOR('',#667,1.0);
#598=COLOUR_RGB('',0.156862750649452,0.549019634723663,0.941176474094391);
#599=AXIS2_PLACEMENT_3D('',#668,#669,#670);
#600=COLOUR_RGB('',0.156862750649452,0.549019634723663,0.941176474094391);
#601=CARTESIAN_POINT('',(-0.531250000000001,-0.9375,0.25));
#602=CARTESIAN_POINT('',(-0.531250000000001,-0.9375,0.0));
#603=VECTOR('',#671,1.0);
#604=CARTESIAN_POINT('',(-1.09375,-0.9375,0.25));
#605=CARTESIAN_POINT('',(-1.09375,-0.9375,0.0));
#606=VECTOR('',#672,1.0);
#607=AXIS2_PLACEMENT_3D('',#673,#674,#675);
#608=COLOUR_RGB('',0.156862750649452,0.549019634723663,0.941176474094391);
#609=AXIS2_PLACEMENT_3D('',#676,#677,#678);
#610=COLOUR_RGB('',0.156862750649452,0.549019634723663,0.941176474094391);
#611=AXIS2_PLACEMENT_3D('',#679,#680,#681);
#612=COLOUR_RGB('',0.156862750649452,0.549019634723663,0.941176474094391);
#613=COLOUR_RGB('',0.156862750649452,0.549019634723663,0.941176474094391);
#614=DIRECTION('',(-0.0,-0.0,1.0));
#615=CARTESIAN_POINT('',(-0.8125,0.9375,0.0));
#616=DIRECTION('',(0.0,0.0,1.0));
#617=DIRECTION('',(1.0,0.0,-0.0));
#618=DIRECTION('',(-0.0,0.0,-1.0));
#619=CARTESIAN_POINT('',(-0.8125,0.9375,0.25));
#620=DIRECTION('',(0.0,0.0,1.0));
#621=DIRECTION('',(1.0,0.0,0.0));
#622=DIRECTION('',(0.0,1.0,0.0));
#623=DIRECTION('',(0.0,0.0,1.0));
#624=DIRECTION('',(0.0,1.0,0.0));
#625=DIRECTION('',(0.0,0.0,1.0));
#626=CARTESIAN_POINT('',(0.812499999999998,-0.9375,0.0));
#627=DIRECTION('',(0.0,0.0,1.0));
#628=DIRECTION('',(1.0,0.0,-0.0));
#629=CARTESIAN_POINT('',(0.812499999999998,-0.9375,0.0));
#630=DIRECTION('',(0.0,0.0,1.0));
#631=DIRECTION('',(1.0,0.0,-0.0));
#632=CARTESIAN_POINT('',(-0.8125,0.9375,0.0));
#633=DIRECTION('',(0.0,0.0,1.0));
#634=DIRECTION('',(1.0,0.0,-0.0));
#635=CARTESIAN_POINT('',(0.812499999999999,0.9375,0.0));
#636=DIRECTION('',(0.0,0.0,1.0));
#637=DIRECTION('',(1.0,0.0,-0.0));
#638=CARTESIAN_POINT('',(0.812499999999999,0.9375,0.0));
#639=DIRECTION('',(0.0,0.0,1.0));
#640=DIRECTION('',(1.0,0.0,-0.0));
#641=CARTESIAN_POINT('',(-0.812500000000001,-0.9375,0.0));
#642=DIRECTION('',(0.0,0.0,1.0));
#643=DIRECTION('',(1.0,0.0,-0.0));
#644=CARTESIAN_POINT('',(-0.812500000000001,-0.9375,0.0));
#645=DIRECTION('',(0.0,0.0,1.0));
#646=DIRECTION('',(1.0,0.0,-0.0));
#647=DIRECTION('',(-1.0,2.73285667600039E-16,0.0));
#648=DIRECTION('',(1.0,0.0,0.0));
#649=DIRECTION('',(-2.53765262771464E-16,-1.0,0.0));
#650=DIRECTION('',(-0.0,-0.0,1.0));
#651=DIRECTION('',(-0.0,0.0,-1.0));
#652=CARTESIAN_POINT('',(0.812499999999998,-0.9375,0.25));
#653=DIRECTION('',(0.0,0.0,1.0));
#654=DIRECTION('',(1.0,0.0,0.0));
#655=DIRECTION('',(1.0,0.0,0.0));
#656=DIRECTION('',(0.0,0.0,1.0));
#657=DIRECTION('',(-1.0,2.73285667600039E-16,0.0));
#658=DIRECTION('',(0.0,0.0,1.0));
#659=DIRECTION('',(-0.0,-0.0,1.0));
#660=DIRECTION('',(-0.0,0.0,-1.0));
#661=CARTESIAN_POINT('',(0.812499999999999,0.9375,0.25));
#662=DIRECTION('',(0.0,0.0,1.0));
#663=DIRECTION('',(1.0,0.0,0.0));
#664=CARTESIAN_POINT('',(-0.8125,0.9375,0.25));
#665=DIRECTION('',(0.0,0.0,1.0));
#666=DIRECTION('',(1.0,0.0,0.0));
#667=DIRECTION('',(-2.53765262771464E-16,-1.0,0.0));
#668=CARTESIAN_POINT('',(0.812499999999999,0.9375,0.25));
#669=DIRECTION('',(0.0,0.0,1.0));
#670=DIRECTION('',(1.0,0.0,0.0));
#671=DIRECTION('',(-0.0,-0.0,1.0));
#672=DIRECTION('',(-0.0,0.0,-1.0));
#673=CARTESIAN_POINT('',(-0.812500000000001,-0.9375,0.25));
#674=DIRECTION('',(0.0,0.0,1.0));
#675=DIRECTION('',(1.0,0.0,0.0));
#676=CARTESIAN_POINT('',(0.812499999999998,-0.9375,0.25));
#677=DIRECTION('',(0.0,0.0,1.0));
#678=DIRECTION('',(1.0,0.0,0.0));
#679=CARTESIAN_POINT('',(-0.812500000000001,-0.9375,0.25));
#680=DIRECTION('',(0.0,0.0,1.0));
#681=DIRECTION('',(1.0,0.0,0.0));
ENDSEC;
END-ISO-10303-21;
