ISO-10303-21;
HEADER;
FILE_DESCRIPTION(('TurboCAD Mac Pro'),'Build 980');
FILE_NAME('P2324.stp','  ',(''),(''),'ACIS Interop','IMSI','TurboCAD Mac Pro BY IMSI, INCORPORATED');
FILE_SCHEMA(('automotive_design'));
ENDSEC;
DATA;
#1=MECHANICAL_DESIGN_GEOMETRIC_PRESENTATION_REPRESENTATION(' ',(#14,#15,#16,#17,#18,#19,#20,#21,#22,#23,#24,#25,#26,#27,#28,#29,#30),#10);
#2=PRODUCT_DEFINITION_CONTEXT('',#31,'design');
#3=APPLICATION_PROTOCOL_DEFINITION('INTERNATIONAL STANDARD','automotive_design',1994,#31);
#4=PRODUCT_CATEGORY_RELATIONSHIP('NONE','NONE',#32,#33);
#5=SHAPE_DEFINITION_REPRESENTATION(#34,#35);
#6=PRODUCT_DEFINITION_CONTEXT('',#36,'design');
#7=APPLICATION_PROTOCOL_DEFINITION('INTERNATIONAL STANDARD','automotive_design',1994,#36);
#8=PRODUCT_CATEGORY_RELATIONSHIP('NONE','NONE',#37,#38);
#9=SHAPE_DEFINITION_REPRESENTATION(#39,#40);
#10= (GEOMETRIC_REPRESENTATION_CONTEXT(3)GLOBAL_UNCERTAINTY_ASSIGNED_CONTEXT((#43))GLOBAL_UNIT_ASSIGNED_CONTEXT((#45,#46,#47))REPRESENTATION_CONTEXT('NONE','WORKSPACE'));
#14=STYLED_ITEM('',(#49),#50);
#15=STYLED_ITEM('',(#51),#52);
#16=STYLED_ITEM('',(#53),#54);
#17=STYLED_ITEM('',(#55),#56);
#18=STYLED_ITEM('',(#57),#58);
#19=STYLED_ITEM('',(#59),#60);
#20=STYLED_ITEM('',(#61),#62);
#21=STYLED_ITEM('',(#63),#64);
#22=STYLED_ITEM('',(#65),#66);
#23=STYLED_ITEM('',(#67),#68);
#24=STYLED_ITEM('',(#69),#70);
#25=STYLED_ITEM('',(#71),#72);
#26=STYLED_ITEM('',(#73),#74);
#27=STYLED_ITEM('',(#75),#76);
#28=STYLED_ITEM('',(#77),#78);
#29=STYLED_ITEM('',(#79),#80);
#30=STYLED_ITEM('',(#81),#82);
#31=APPLICATION_CONTEXT(' ');
#32=PRODUCT_CATEGORY('part','NONE');
#33=PRODUCT_RELATED_PRODUCT_CATEGORY('detail',' ',(#83));
#34=PRODUCT_DEFINITION_SHAPE('NONE','NONE',#84);
#35=ADVANCED_BREP_SHAPE_REPRESENTATION('1',(#76,#85),#10);
#36=APPLICATION_CONTEXT(' ');
#37=PRODUCT_CATEGORY('part','NONE');
#38=PRODUCT_RELATED_PRODUCT_CATEGORY('detail',' ',(#86));
#39=PRODUCT_DEFINITION_SHAPE('NONE','NONE',#87);
#40=GEOMETRICALLY_BOUNDED_SURFACE_SHAPE_REPRESENTATION('2',(#88,#89),#10);
#43=UNCERTAINTY_MEASURE_WITH_UNIT(LENGTH_MEASURE(1.0E-06),#45,'','');
#45= (CONVERSION_BASED_UNIT('INCH',#92)LENGTH_UNIT()NAMED_UNIT(#95));
#46= (NAMED_UNIT(#97)PLANE_ANGLE_UNIT()SI_UNIT($,.RADIAN.));
#47= (NAMED_UNIT(#97)SOLID_ANGLE_UNIT()SI_UNIT($,.STERADIAN.));
#49=PRESENTATION_STYLE_ASSIGNMENT((#103));
#50=ADVANCED_FACE('',(#104),#105,.F.);
#51=PRESENTATION_STYLE_ASSIGNMENT((#106));
#52=TRIMMED_CURVE('',#107,(PARAMETER_VALUE(0.0)),(PARAMETER_VALUE(6.28318530717959)),.T.,.UNSPECIFIED.);
#53=PRESENTATION_STYLE_ASSIGNMENT((#108));
#54=ADVANCED_FACE('',(#109),#110,.T.);
#55=PRESENTATION_STYLE_ASSIGNMENT((#111));
#56=ADVANCED_FACE('',(#112),#113,.T.);
#57=PRESENTATION_STYLE_ASSIGNMENT((#114));
#58=ADVANCED_FACE('',(#115),#116,.F.);
#59=PRESENTATION_STYLE_ASSIGNMENT((#117));
#60=ADVANCED_FACE('',(#118,#119,#120,#121),#122,.T.);
#61=PRESENTATION_STYLE_ASSIGNMENT((#123));
#62=TRIMMED_CURVE('',#124,(PARAMETER_VALUE(0.0)),(PARAMETER_VALUE(6.28318530717959)),.T.,.UNSPECIFIED.);
#63=PRESENTATION_STYLE_ASSIGNMENT((#125));
#64=ADVANCED_FACE('',(#126),#127,.F.);
#65=PRESENTATION_STYLE_ASSIGNMENT((#128));
#66=ADVANCED_FACE('',(#129),#130,.F.);
#67=PRESENTATION_STYLE_ASSIGNMENT((#131));
#68=ADVANCED_FACE('',(#132,#133,#134,#135),#136,.F.);
#69=PRESENTATION_STYLE_ASSIGNMENT((#137));
#70=TRIMMED_CURVE('',#138,(PARAMETER_VALUE(0.0)),(PARAMETER_VALUE(6.28318530717959)),.T.,.UNSPECIFIED.);
#71=PRESENTATION_STYLE_ASSIGNMENT((#139));
#72=ADVANCED_FACE('',(#140),#141,.F.);
#73=PRESENTATION_STYLE_ASSIGNMENT((#142));
#74=ADVANCED_FACE('',(#143),#144,.F.);
#75=PRESENTATION_STYLE_ASSIGNMENT((#145));
#76=MANIFOLD_SOLID_BREP('1',#146);
#77=PRESENTATION_STYLE_ASSIGNMENT((#147));
#78=ADVANCED_FACE('',(#148),#149,.T.);
#79=PRESENTATION_STYLE_ASSIGNMENT((#150));
#80=ADVANCED_FACE('',(#151),#152,.T.);
#81=PRESENTATION_STYLE_ASSIGNMENT((#153));
#82=ADVANCED_FACE('',(#154),#155,.T.);
#83=PRODUCT('1','1','PART-1-DESC',(#156));
#84=PRODUCT_DEFINITION('NONE','NONE',#157,#2);
#85=AXIS2_PLACEMENT_3D('',#158,#159,#160);
#86=PRODUCT('2','2','PART-2-DESC',(#161));
#87=PRODUCT_DEFINITION('NONE','NONE',#162,#6);
#88=GEOMETRIC_SET('2',(#163,#164,#165));
#89=AXIS2_PLACEMENT_3D('',#166,#167,#168);
#92=LENGTH_MEASURE_WITH_UNIT(LENGTH_MEASURE(25.4),#169);
#95=DIMENSIONAL_EXPONENTS(1.0,0.0,0.0,0.0,0.0,0.0,0.0);
#97=DIMENSIONAL_EXPONENTS(0.0,0.0,0.0,0.0,0.0,0.0,0.0);
#103=SURFACE_STYLE_USAGE(.BOTH.,#170);
#104=FACE_OUTER_BOUND('',#171,.T.);
#105=CYLINDRICAL_SURFACE('',#172,0.28125);
#106=CURVE_STYLE('',#173,POSITIVE_LENGTH_MEASURE(1.0E-06),#174);
#107=CIRCLE('',#175,0.28125);
#108=SURFACE_STYLE_USAGE(.BOTH.,#176);
#109=FACE_OUTER_BOUND('',#177,.T.);
#110=PLANE('',#178);
#111=SURFACE_STYLE_USAGE(.BOTH.,#179);
#112=FACE_OUTER_BOUND('',#180,.T.);
#113=PLANE('',#181);
#114=SURFACE_STYLE_USAGE(.BOTH.,#182);
#115=FACE_OUTER_BOUND('',#183,.T.);
#116=CYLINDRICAL_SURFACE('',#184,0.28125);
#117=SURFACE_STYLE_USAGE(.BOTH.,#185);
#118=FACE_BOUND('',#186,.T.);
#119=FACE_BOUND('',#187,.T.);
#120=FACE_BOUND('',#188,.T.);
#121=FACE_OUTER_BOUND('',#189,.T.);
#122=PLANE('',#190);
#123=CURVE_STYLE('',#191,POSITIVE_LENGTH_MEASURE(1.0E-06),#192);
#124=CIRCLE('',#193,0.28125);
#125=SURFACE_STYLE_USAGE(.BOTH.,#194);
#126=FACE_OUTER_BOUND('',#195,.T.);
#127=CYLINDRICAL_SURFACE('',#196,0.28125);
#128=SURFACE_STYLE_USAGE(.BOTH.,#197);
#129=FACE_OUTER_BOUND('',#198,.T.);
#130=CYLINDRICAL_SURFACE('',#199,0.28125);
#131=SURFACE_STYLE_USAGE(.BOTH.,#200);
#132=FACE_BOUND('',#201,.T.);
#133=FACE_BOUND('',#202,.T.);
#134=FACE_BOUND('',#203,.T.);
#135=FACE_OUTER_BOUND('',#204,.T.);
#136=PLANE('',#205);
#137=CURVE_STYLE('',#206,POSITIVE_LENGTH_MEASURE(1.0E-06),#207);
#138=CIRCLE('',#208,0.28125);
#139=SURFACE_STYLE_USAGE(.BOTH.,#209);
#140=FACE_OUTER_BOUND('',#210,.T.);
#141=CYLINDRICAL_SURFACE('',#211,0.28125);
#142=SURFACE_STYLE_USAGE(.BOTH.,#212);
#143=FACE_OUTER_BOUND('',#213,.T.);
#144=CYLINDRICAL_SURFACE('',#214,0.28125);
#145=SURFACE_STYLE_USAGE(.BOTH.,#215);
#146=CLOSED_SHELL('',(#64,#66,#50,#78,#54,#80,#56,#82,#74,#58,#72,#60,#68));
#147=SURFACE_STYLE_USAGE(.BOTH.,#216);
#148=FACE_OUTER_BOUND('',#217,.T.);
#149=CYLINDRICAL_SURFACE('',#218,0.8125);
#150=SURFACE_STYLE_USAGE(.BOTH.,#219);
#151=FACE_OUTER_BOUND('',#220,.T.);
#152=CYLINDRICAL_SURFACE('',#221,0.8125);
#153=SURFACE_STYLE_USAGE(.BOTH.,#222);
#154=FACE_OUTER_BOUND('',#223,.T.);
#155=PLANE('',#224);
#156=PRODUCT_CONTEXT('',#31,'mechanical');
#157=PRODUCT_DEFINITION_FORMATION_WITH_SPECIFIED_SOURCE(' ','NONE',#83,.NOT_KNOWN.);
#158=CARTESIAN_POINT('',(0.0,0.0,0.0));
#159=DIRECTION('',(0.0,0.0,1.0));
#160=DIRECTION('',(1.0,0.0,0.0));
#161=PRODUCT_CONTEXT('',#36,'mechanical');
#162=PRODUCT_DEFINITION_FORMATION_WITH_SPECIFIED_SOURCE(' ','NONE',#86,.NOT_KNOWN.);
#163=COMPOSITE_CURVE('',(#225),.U.);
#164=COMPOSITE_CURVE('',(#226),.U.);
#165=COMPOSITE_CURVE('',(#227),.U.);
#166=CARTESIAN_POINT('',(0.0,0.0,0.0));
#167=DIRECTION('',(0.0,0.0,1.0));
#168=DIRECTION('',(1.0,0.0,0.0));
#169= (NAMED_UNIT(#95)LENGTH_UNIT()SI_UNIT(.MILLI.,.METRE.));
#170=SURFACE_SIDE_STYLE('',(#229));
#171=EDGE_LOOP('',(#230,#231,#232,#233));
#172=AXIS2_PLACEMENT_3D('',#234,#235,#236);
#173=DRAUGHTING_PRE_DEFINED_CURVE_FONT('continuous');
#174=COLOUR_RGB('',1.0,1.0,1.0);
#175=AXIS2_PLACEMENT_3D('',#237,#238,#239);
#176=SURFACE_SIDE_STYLE('',(#240));
#177=EDGE_LOOP('',(#241,#242,#243,#244));
#178=AXIS2_PLACEMENT_3D('',#245,#246,#247);
#179=SURFACE_SIDE_STYLE('',(#248));
#180=EDGE_LOOP('',(#249,#250,#251,#252));
#181=AXIS2_PLACEMENT_3D('',#253,#254,#255);
#182=SURFACE_SIDE_STYLE('',(#256));
#183=EDGE_LOOP('',(#257,#258,#259,#260));
#184=AXIS2_PLACEMENT_3D('',#261,#262,#263);
#185=SURFACE_SIDE_STYLE('',(#264));
#186=EDGE_LOOP('',(#265,#266));
#187=EDGE_LOOP('',(#267,#268));
#188=EDGE_LOOP('',(#269,#270));
#189=EDGE_LOOP('',(#271,#272,#273,#274,#275));
#190=AXIS2_PLACEMENT_3D('',#276,#277,#278);
#191=DRAUGHTING_PRE_DEFINED_CURVE_FONT('continuous');
#192=COLOUR_RGB('',1.0,1.0,1.0);
#193=AXIS2_PLACEMENT_3D('',#279,#280,#281);
#194=SURFACE_SIDE_STYLE('',(#282));
#195=EDGE_LOOP('',(#283,#284,#285,#286));
#196=AXIS2_PLACEMENT_3D('',#287,#288,#289);
#197=SURFACE_SIDE_STYLE('',(#290));
#198=EDGE_LOOP('',(#291,#292,#293,#294));
#199=AXIS2_PLACEMENT_3D('',#295,#296,#297);
#200=SURFACE_SIDE_STYLE('',(#298));
#201=EDGE_LOOP('',(#299,#300));
#202=EDGE_LOOP('',(#301,#302));
#203=EDGE_LOOP('',(#303,#304));
#204=EDGE_LOOP('',(#305,#306,#307,#308,#309));
#205=AXIS2_PLACEMENT_3D('',#310,#311,#312);
#206=DRAUGHTING_PRE_DEFINED_CURVE_FONT('continuous');
#207=COLOUR_RGB('',1.0,1.0,1.0);
#208=AXIS2_PLACEMENT_3D('',#313,#314,#315);
#209=SURFACE_SIDE_STYLE('',(#316));
#210=EDGE_LOOP('',(#317,#318,#319,#320));
#211=AXIS2_PLACEMENT_3D('',#321,#322,#323);
#212=SURFACE_SIDE_STYLE('',(#324));
#213=EDGE_LOOP('',(#325,#326,#327,#328));
#214=AXIS2_PLACEMENT_3D('',#329,#330,#331);
#215=SURFACE_SIDE_STYLE('',(#332));
#216=SURFACE_SIDE_STYLE('',(#333));
#217=EDGE_LOOP('',(#334,#335,#336,#337));
#218=AXIS2_PLACEMENT_3D('',#338,#339,#340);
#219=SURFACE_SIDE_STYLE('',(#341));
#220=EDGE_LOOP('',(#342,#343,#344,#345));
#221=AXIS2_PLACEMENT_3D('',#346,#347,#348);
#222=SURFACE_SIDE_STYLE('',(#349));
#223=EDGE_LOOP('',(#350,#351,#352,#353));
#224=AXIS2_PLACEMENT_3D('',#354,#355,#356);
#225=COMPOSITE_CURVE_SEGMENT('',.CONTINUOUS.,.T.,#52);
#226=COMPOSITE_CURVE_SEGMENT('',.CONTINUOUS.,.T.,#62);
#227=COMPOSITE_CURVE_SEGMENT('',.CONTINUOUS.,.T.,#70);
#229=SURFACE_STYLE_FILL_AREA(#357);
#230=ORIENTED_EDGE('',*,*,#358,.F.);
#231=ORIENTED_EDGE('',*,*,#359,.F.);
#232=ORIENTED_EDGE('',*,*,#360,.F.);
#233=ORIENTED_EDGE('',*,*,#361,.T.);
#234=CARTESIAN_POINT('',(0.0625,2.28983498828939E-16,0.0));
#235=DIRECTION('',(-0.0,-0.0,-1.0));
#236=DIRECTION('',(1.0,0.0,0.0));
#237=CARTESIAN_POINT('',(-1.8125,0.0,0.0));
#238=DIRECTION('',(0.0,0.0,1.0));
#239=DIRECTION('',(1.0,-2.44929359829471E-16,0.0));
#240=SURFACE_STYLE_FILL_AREA(#362);
#241=ORIENTED_EDGE('',*,*,#363,.T.);
#242=ORIENTED_EDGE('',*,*,#364,.F.);
#243=ORIENTED_EDGE('',*,*,#365,.T.);
#244=ORIENTED_EDGE('',*,*,#366,.T.);
#245=CARTESIAN_POINT('',(0.53125,0.8125,0.0));
#246=DIRECTION('',(0.0,1.0,-0.0));
#247=DIRECTION('',(-1.0,0.0,0.0));
#248=SURFACE_STYLE_FILL_AREA(#367);
#249=ORIENTED_EDGE('',*,*,#368,.T.);
#250=ORIENTED_EDGE('',*,*,#369,.F.);
#251=ORIENTED_EDGE('',*,*,#370,.T.);
#252=ORIENTED_EDGE('',*,*,#371,.T.);
#253=CARTESIAN_POINT('',(0.53125,-0.812499999999998,0.0));
#254=DIRECTION('',(-5.62806127334733E-16,-1.0,0.0));
#255=DIRECTION('',(1.0,-5.62806127334733E-16,0.0));
#256=SURFACE_STYLE_FILL_AREA(#372);
#257=ORIENTED_EDGE('',*,*,#373,.T.);
#258=ORIENTED_EDGE('',*,*,#374,.T.);
#259=ORIENTED_EDGE('',*,*,#375,.T.);
#260=ORIENTED_EDGE('',*,*,#376,.F.);
#261=CARTESIAN_POINT('',(-1.8125,0.0,0.0));
#262=DIRECTION('',(-0.0,-0.0,-1.0));
#263=DIRECTION('',(1.0,0.0,0.0));
#264=SURFACE_STYLE_FILL_AREA(#377);
#265=ORIENTED_EDGE('',*,*,#378,.F.);
#266=ORIENTED_EDGE('',*,*,#379,.F.);
#267=ORIENTED_EDGE('',*,*,#374,.F.);
#268=ORIENTED_EDGE('',*,*,#380,.F.);
#269=ORIENTED_EDGE('',*,*,#381,.F.);
#270=ORIENTED_EDGE('',*,*,#361,.F.);
#271=ORIENTED_EDGE('',*,*,#363,.F.);
#272=ORIENTED_EDGE('',*,*,#382,.F.);
#273=ORIENTED_EDGE('',*,*,#368,.F.);
#274=ORIENTED_EDGE('',*,*,#383,.F.);
#275=ORIENTED_EDGE('',*,*,#384,.F.);
#276=CARTESIAN_POINT('',(0.776329359017056,8.88178419700125E-16,0.25));
#277=DIRECTION('',(0.0,0.0,1.0));
#278=DIRECTION('',(1.0,0.0,0.0));
#279=CARTESIAN_POINT('',(0.0625,2.28983498828939E-16,0.0));
#280=DIRECTION('',(0.0,0.0,1.0));
#281=DIRECTION('',(1.0,-2.44929359829471E-16,0.0));
#282=SURFACE_STYLE_FILL_AREA(#385);
#283=ORIENTED_EDGE('',*,*,#386,.F.);
#284=ORIENTED_EDGE('',*,*,#387,.F.);
#285=ORIENTED_EDGE('',*,*,#388,.F.);
#286=ORIENTED_EDGE('',*,*,#379,.T.);
#287=CARTESIAN_POINT('',(3.6875,0.0,0.0));
#288=DIRECTION('',(-0.0,-0.0,-1.0));
#289=DIRECTION('',(1.0,0.0,0.0));
#290=SURFACE_STYLE_FILL_AREA(#389);
#291=ORIENTED_EDGE('',*,*,#373,.F.);
#292=ORIENTED_EDGE('',*,*,#390,.F.);
#293=ORIENTED_EDGE('',*,*,#375,.F.);
#294=ORIENTED_EDGE('',*,*,#380,.T.);
#295=CARTESIAN_POINT('',(-1.8125,0.0,0.0));
#296=DIRECTION('',(-0.0,-0.0,-1.0));
#297=DIRECTION('',(1.0,0.0,0.0));
#298=SURFACE_STYLE_FILL_AREA(#391);
#299=ORIENTED_EDGE('',*,*,#392,.T.);
#300=ORIENTED_EDGE('',*,*,#387,.T.);
#301=ORIENTED_EDGE('',*,*,#376,.T.);
#302=ORIENTED_EDGE('',*,*,#390,.T.);
#303=ORIENTED_EDGE('',*,*,#393,.T.);
#304=ORIENTED_EDGE('',*,*,#359,.T.);
#305=ORIENTED_EDGE('',*,*,#394,.F.);
#306=ORIENTED_EDGE('',*,*,#365,.F.);
#307=ORIENTED_EDGE('',*,*,#395,.F.);
#308=ORIENTED_EDGE('',*,*,#396,.F.);
#309=ORIENTED_EDGE('',*,*,#370,.F.);
#310=CARTESIAN_POINT('',(0.776329359017056,8.88178419700125E-16,0.0));
#311=DIRECTION('',(0.0,0.0,1.0));
#312=DIRECTION('',(1.0,0.0,0.0));
#313=CARTESIAN_POINT('',(3.6875,0.0,0.0));
#314=DIRECTION('',(0.0,0.0,1.0));
#315=DIRECTION('',(1.0,-2.44929359829471E-16,0.0));
#316=SURFACE_STYLE_FILL_AREA(#397);
#317=ORIENTED_EDGE('',*,*,#386,.T.);
#318=ORIENTED_EDGE('',*,*,#378,.T.);
#319=ORIENTED_EDGE('',*,*,#388,.T.);
#320=ORIENTED_EDGE('',*,*,#392,.F.);
#321=CARTESIAN_POINT('',(3.6875,0.0,0.0));
#322=DIRECTION('',(-0.0,-0.0,-1.0));
#323=DIRECTION('',(1.0,0.0,0.0));
#324=SURFACE_STYLE_FILL_AREA(#398);
#325=ORIENTED_EDGE('',*,*,#358,.T.);
#326=ORIENTED_EDGE('',*,*,#381,.T.);
#327=ORIENTED_EDGE('',*,*,#360,.T.);
#328=ORIENTED_EDGE('',*,*,#393,.F.);
#329=CARTESIAN_POINT('',(0.0625,2.28983498828939E-16,0.0));
#330=DIRECTION('',(-0.0,-0.0,-1.0));
#331=DIRECTION('',(1.0,0.0,0.0));
#332=SURFACE_STYLE_FILL_AREA(#399);
#333=SURFACE_STYLE_FILL_AREA(#400);
#334=ORIENTED_EDGE('',*,*,#401,.F.);
#335=ORIENTED_EDGE('',*,*,#395,.T.);
#336=ORIENTED_EDGE('',*,*,#364,.T.);
#337=ORIENTED_EDGE('',*,*,#384,.T.);
#338=CARTESIAN_POINT('',(3.6875,0.0,0.0));
#339=DIRECTION('',(-0.0,-0.0,-1.0));
#340=DIRECTION('',(1.0,0.0,0.0));
#341=SURFACE_STYLE_FILL_AREA(#402);
#342=ORIENTED_EDGE('',*,*,#401,.T.);
#343=ORIENTED_EDGE('',*,*,#383,.T.);
#344=ORIENTED_EDGE('',*,*,#371,.F.);
#345=ORIENTED_EDGE('',*,*,#396,.T.);
#346=CARTESIAN_POINT('',(3.6875,0.0,0.0));
#347=DIRECTION('',(-0.0,-0.0,-1.0));
#348=DIRECTION('',(1.0,0.0,0.0));
#349=SURFACE_STYLE_FILL_AREA(#403);
#350=ORIENTED_EDGE('',*,*,#382,.T.);
#351=ORIENTED_EDGE('',*,*,#366,.F.);
#352=ORIENTED_EDGE('',*,*,#394,.T.);
#353=ORIENTED_EDGE('',*,*,#369,.T.);
#354=CARTESIAN_POINT('',(-2.625,1.77635683940025E-15,0.0));
#355=DIRECTION('',(-1.0,-5.46571335200078E-16,0.0));
#356=DIRECTION('',(5.46571335200078E-16,-1.0,0.0));
#357=FILL_AREA_STYLE('',(#404));
#358=EDGE_CURVE('',#405,#406,#407,.T.);
#359=EDGE_CURVE('',#408,#405,#409,.T.);
#360=EDGE_CURVE('',#410,#408,#411,.T.);
#361=EDGE_CURVE('',#410,#406,#412,.T.);
#362=FILL_AREA_STYLE('',(#413));
#363=EDGE_CURVE('',#414,#415,#416,.T.);
#364=EDGE_CURVE('',#417,#415,#418,.T.);
#365=EDGE_CURVE('',#417,#419,#420,.T.);
#366=EDGE_CURVE('',#419,#414,#421,.T.);
#367=FILL_AREA_STYLE('',(#422));
#368=EDGE_CURVE('',#423,#424,#425,.T.);
#369=EDGE_CURVE('',#426,#424,#427,.T.);
#370=EDGE_CURVE('',#426,#428,#429,.T.);
#371=EDGE_CURVE('',#428,#423,#430,.T.);
#372=FILL_AREA_STYLE('',(#431));
#373=EDGE_CURVE('',#432,#433,#434,.T.);
#374=EDGE_CURVE('',#433,#435,#436,.T.);
#375=EDGE_CURVE('',#435,#437,#438,.T.);
#376=EDGE_CURVE('',#432,#437,#439,.T.);
#377=FILL_AREA_STYLE('',(#440));
#378=EDGE_CURVE('',#441,#442,#443,.T.);
#379=EDGE_CURVE('',#442,#441,#444,.T.);
#380=EDGE_CURVE('',#435,#433,#445,.T.);
#381=EDGE_CURVE('',#406,#410,#446,.T.);
#382=EDGE_CURVE('',#424,#414,#447,.T.);
#383=EDGE_CURVE('',#448,#423,#449,.T.);
#384=EDGE_CURVE('',#415,#448,#450,.T.);
#385=FILL_AREA_STYLE('',(#451));
#386=EDGE_CURVE('',#452,#441,#453,.T.);
#387=EDGE_CURVE('',#454,#452,#455,.T.);
#388=EDGE_CURVE('',#442,#454,#456,.T.);
#389=FILL_AREA_STYLE('',(#457));
#390=EDGE_CURVE('',#437,#432,#458,.T.);
#391=FILL_AREA_STYLE('',(#459));
#392=EDGE_CURVE('',#452,#454,#460,.T.);
#393=EDGE_CURVE('',#405,#408,#461,.T.);
#394=EDGE_CURVE('',#419,#426,#462,.T.);
#395=EDGE_CURVE('',#463,#417,#464,.T.);
#396=EDGE_CURVE('',#428,#463,#465,.T.);
#397=FILL_AREA_STYLE('',(#466));
#398=FILL_AREA_STYLE('',(#467));
#399=FILL_AREA_STYLE('',(#468));
#400=FILL_AREA_STYLE('',(#469));
#401=EDGE_CURVE('',#463,#448,#470,.T.);
#402=FILL_AREA_STYLE('',(#471));
#403=FILL_AREA_STYLE('',(#472));
#404=FILL_AREA_STYLE_COLOUR('',#473);
#405=VERTEX_POINT('',#474);
#406=VERTEX_POINT('',#475);
#407=LINE('',#476,#477);
#408=VERTEX_POINT('',#478);
#409=CIRCLE('',#479,0.28125);
#410=VERTEX_POINT('',#480);
#411=LINE('',#481,#482);
#412=CIRCLE('',#483,0.28125);
#413=FILL_AREA_STYLE_COLOUR('',#484);
#414=VERTEX_POINT('',#485);
#415=VERTEX_POINT('',#486);
#416=LINE('',#487,#488);
#417=VERTEX_POINT('',#489);
#418=LINE('',#490,#491);
#419=VERTEX_POINT('',#492);
#420=LINE('',#493,#494);
#421=LINE('',#495,#496);
#422=FILL_AREA_STYLE_COLOUR('',#497);
#423=VERTEX_POINT('',#498);
#424=VERTEX_POINT('',#499);
#425=LINE('',#500,#501);
#426=VERTEX_POINT('',#502);
#427=LINE('',#503,#504);
#428=VERTEX_POINT('',#505);
#429=LINE('',#506,#507);
#430=LINE('',#508,#509);
#431=FILL_AREA_STYLE_COLOUR('',#510);
#432=VERTEX_POINT('',#511);
#433=VERTEX_POINT('',#512);
#434=LINE('',#513,#514);
#435=VERTEX_POINT('',#515);
#436=CIRCLE('',#516,0.28125);
#437=VERTEX_POINT('',#517);
#438=LINE('',#518,#519);
#439=CIRCLE('',#520,0.28125);
#440=FILL_AREA_STYLE_COLOUR('',#521);
#441=VERTEX_POINT('',#522);
#442=VERTEX_POINT('',#523);
#443=CIRCLE('',#524,0.28125);
#444=CIRCLE('',#525,0.28125);
#445=CIRCLE('',#526,0.28125);
#446=CIRCLE('',#527,0.28125);
#447=LINE('',#528,#529);
#448=VERTEX_POINT('',#530);
#449=CIRCLE('',#531,0.8125);
#450=CIRCLE('',#532,0.8125);
#451=FILL_AREA_STYLE_COLOUR('',#533);
#452=VERTEX_POINT('',#534);
#453=LINE('',#535,#536);
#454=VERTEX_POINT('',#537);
#455=CIRCLE('',#538,0.28125);
#456=LINE('',#539,#540);
#457=FILL_AREA_STYLE_COLOUR('',#541);
#458=CIRCLE('',#542,0.28125);
#459=FILL_AREA_STYLE_COLOUR('',#543);
#460=CIRCLE('',#544,0.28125);
#461=CIRCLE('',#545,0.28125);
#462=LINE('',#546,#547);
#463=VERTEX_POINT('',#548);
#464=CIRCLE('',#549,0.8125);
#465=CIRCLE('',#550,0.8125);
#466=FILL_AREA_STYLE_COLOUR('',#551);
#467=FILL_AREA_STYLE_COLOUR('',#552);
#468=FILL_AREA_STYLE_COLOUR('',#553);
#469=FILL_AREA_STYLE_COLOUR('',#554);
#470=LINE('',#555,#556);
#471=FILL_AREA_STYLE_COLOUR('',#557);
#472=FILL_AREA_STYLE_COLOUR('',#558);
#473=COLOUR_RGB('',0.156862750649452,0.549019634723663,0.941176474094391);
#474=CARTESIAN_POINT('',(0.34375,2.28983498828939E-16,0.0));
#475=CARTESIAN_POINT('',(0.34375,2.28983498828939E-16,0.25));
#476=CARTESIAN_POINT('',(0.34375,1.94540307602919E-16,0.0));
#477=VECTOR('',#559,1.0);
#478=CARTESIAN_POINT('',(-0.21875,2.63426690054958E-16,0.0));
#479=AXIS2_PLACEMENT_3D('',#560,#561,#562);
#480=CARTESIAN_POINT('',(-0.21875,2.63426690054958E-16,0.25));
#481=CARTESIAN_POINT('',(-0.21875,2.63426690054958E-16,0.0));
#482=VECTOR('',#563,1.0);
#483=AXIS2_PLACEMENT_3D('',#564,#565,#566);
#484=COLOUR_RGB('',0.156862750649452,0.549019634723663,0.941176474094391);
#485=CARTESIAN_POINT('',(-2.625,0.8125,0.25));
#486=CARTESIAN_POINT('',(3.6875,0.8125,0.25));
#487=CARTESIAN_POINT('',(3.6875,0.8125,0.25));
#488=VECTOR('',#567,1.0);
#489=CARTESIAN_POINT('',(3.6875,0.8125,0.0));
#490=CARTESIAN_POINT('',(3.6875,0.8125,0.0));
#491=VECTOR('',#568,1.0);
#492=CARTESIAN_POINT('',(-2.625,0.8125,0.0));
#493=CARTESIAN_POINT('',(3.6875,0.8125,0.0));
#494=VECTOR('',#569,1.0);
#495=CARTESIAN_POINT('',(-2.625,0.8125,0.0));
#496=VECTOR('',#570,1.0);
#497=COLOUR_RGB('',0.156862750649452,0.549019634723663,0.941176474094391);
#498=CARTESIAN_POINT('',(3.6875,-0.8125,0.25));
#499=CARTESIAN_POINT('',(-2.625,-0.812499999999996,0.25));
#500=CARTESIAN_POINT('',(-2.625,-0.812499999999996,0.25));
#501=VECTOR('',#571,1.0);
#502=CARTESIAN_POINT('',(-2.625,-0.812499999999996,0.0));
#503=CARTESIAN_POINT('',(-2.625,-0.812499999999996,0.0));
#504=VECTOR('',#572,1.0);
#505=CARTESIAN_POINT('',(3.6875,-0.8125,0.0));
#506=CARTESIAN_POINT('',(-2.625,-0.812499999999996,0.0));
#507=VECTOR('',#573,1.0);
#508=CARTESIAN_POINT('',(3.6875,-0.8125,0.0));
#509=VECTOR('',#574,1.0);
#510=COLOUR_RGB('',0.156862750649452,0.549019634723663,0.941176474094391);
#511=CARTESIAN_POINT('',(-1.53125,0.0,0.0));
#512=CARTESIAN_POINT('',(-1.53125,0.0,0.25));
#513=CARTESIAN_POINT('',(-1.53125,-3.44431912260193E-17,0.0));
#514=VECTOR('',#575,1.0);
#515=CARTESIAN_POINT('',(-2.09375,3.44431912260193E-17,0.25));
#516=AXIS2_PLACEMENT_3D('',#576,#577,#578);
#517=CARTESIAN_POINT('',(-2.09375,3.44431912260193E-17,0.0));
#518=CARTESIAN_POINT('',(-2.09375,3.44431912260193E-17,0.0));
#519=VECTOR('',#579,1.0);
#520=AXIS2_PLACEMENT_3D('',#580,#581,#582);
#521=COLOUR_RGB('',0.156862750649452,0.549019634723663,0.941176474094391);
#522=CARTESIAN_POINT('',(3.96875,0.0,0.25));
#523=CARTESIAN_POINT('',(3.40625,3.44431912260193E-17,0.25));
#524=AXIS2_PLACEMENT_3D('',#583,#584,#585);
#525=AXIS2_PLACEMENT_3D('',#586,#587,#588);
#526=AXIS2_PLACEMENT_3D('',#589,#590,#591);
#527=AXIS2_PLACEMENT_3D('',#592,#593,#594);
#528=CARTESIAN_POINT('',(-2.625,0.8125,0.25));
#529=VECTOR('',#595,1.0);
#530=CARTESIAN_POINT('',(4.5,-9.95025524307224E-17,0.25));
#531=AXIS2_PLACEMENT_3D('',#596,#597,#598);
#532=AXIS2_PLACEMENT_3D('',#599,#600,#601);
#533=COLOUR_RGB('',0.156862750649452,0.549019634723663,0.941176474094391);
#534=CARTESIAN_POINT('',(3.96875,0.0,0.0));
#535=CARTESIAN_POINT('',(3.96875,-3.44431912260193E-17,0.0));
#536=VECTOR('',#602,1.0);
#537=CARTESIAN_POINT('',(3.40625,3.44431912260193E-17,0.0));
#538=AXIS2_PLACEMENT_3D('',#603,#604,#605);
#539=CARTESIAN_POINT('',(3.40625,3.44431912260193E-17,0.0));
#540=VECTOR('',#606,1.0);
#541=COLOUR_RGB('',0.156862750649452,0.549019634723663,0.941176474094391);
#542=AXIS2_PLACEMENT_3D('',#607,#608,#609);
#543=COLOUR_RGB('',0.156862750649452,0.549019634723663,0.941176474094391);
#544=AXIS2_PLACEMENT_3D('',#610,#611,#612);
#545=AXIS2_PLACEMENT_3D('',#613,#614,#615);
#546=CARTESIAN_POINT('',(-2.625,0.8125,0.0));
#547=VECTOR('',#616,1.0);
#548=CARTESIAN_POINT('',(4.5,-9.95025524307224E-17,0.0));
#549=AXIS2_PLACEMENT_3D('',#617,#618,#619);
#550=AXIS2_PLACEMENT_3D('',#620,#621,#622);
#551=COLOUR_RGB('',0.156862750649452,0.549019634723663,0.941176474094391);
#552=COLOUR_RGB('',0.156862750649452,0.549019634723663,0.941176474094391);
#553=COLOUR_RGB('',0.156862750649452,0.549019634723663,0.941176474094391);
#554=COLOUR_RGB('',0.156862750649452,0.549019634723663,0.941176474094391);
#555=CARTESIAN_POINT('',(4.5,-9.95025524307224E-17,0.0));
#556=VECTOR('',#623,1.0);
#557=COLOUR_RGB('',0.156862750649452,0.549019634723663,0.941176474094391);
#558=COLOUR_RGB('',0.156862750649452,0.549019634723663,0.941176474094391);
#559=DIRECTION('',(-0.0,0.0,1.0));
#560=CARTESIAN_POINT('',(0.0625,2.28983498828939E-16,0.0));
#561=DIRECTION('',(0.0,0.0,1.0));
#562=DIRECTION('',(1.0,0.0,-0.0));
#563=DIRECTION('',(-0.0,0.0,-1.0));
#564=CARTESIAN_POINT('',(0.0625,2.28983498828939E-16,0.25));
#565=DIRECTION('',(0.0,0.0,1.0));
#566=DIRECTION('',(1.0,0.0,0.0));
#567=DIRECTION('',(1.0,0.0,0.0));
#568=DIRECTION('',(0.0,0.0,1.0));
#569=DIRECTION('',(-1.0,0.0,0.0));
#570=DIRECTION('',(0.0,0.0,1.0));
#571=DIRECTION('',(-1.0,5.62806127334733E-16,0.0));
#572=DIRECTION('',(0.0,0.0,1.0));
#573=DIRECTION('',(1.0,-5.62806127334733E-16,0.0));
#574=DIRECTION('',(0.0,0.0,1.0));
#575=DIRECTION('',(-0.0,0.0,1.0));
#576=CARTESIAN_POINT('',(-1.8125,0.0,0.25));
#577=DIRECTION('',(0.0,0.0,1.0));
#578=DIRECTION('',(1.0,0.0,0.0));
#579=DIRECTION('',(-0.0,0.0,-1.0));
#580=CARTESIAN_POINT('',(-1.8125,0.0,0.0));
#581=DIRECTION('',(0.0,0.0,1.0));
#582=DIRECTION('',(1.0,0.0,-0.0));
#583=CARTESIAN_POINT('',(3.6875,0.0,0.25));
#584=DIRECTION('',(0.0,0.0,1.0));
#585=DIRECTION('',(1.0,0.0,0.0));
#586=CARTESIAN_POINT('',(3.6875,0.0,0.25));
#587=DIRECTION('',(0.0,0.0,1.0));
#588=DIRECTION('',(1.0,0.0,0.0));
#589=CARTESIAN_POINT('',(-1.8125,0.0,0.25));
#590=DIRECTION('',(0.0,0.0,1.0));
#591=DIRECTION('',(1.0,0.0,0.0));
#592=CARTESIAN_POINT('',(0.0625,2.28983498828939E-16,0.25));
#593=DIRECTION('',(0.0,0.0,1.0));
#594=DIRECTION('',(1.0,0.0,0.0));
#595=DIRECTION('',(-5.46571335200078E-16,1.0,0.0));
#596=CARTESIAN_POINT('',(3.6875,0.0,0.25));
#597=DIRECTION('',(0.0,0.0,-1.0));
#598=DIRECTION('',(1.0,0.0,0.0));
#599=CARTESIAN_POINT('',(3.6875,0.0,0.25));
#600=DIRECTION('',(0.0,0.0,-1.0));
#601=DIRECTION('',(1.0,0.0,0.0));
#602=DIRECTION('',(-0.0,0.0,1.0));
#603=CARTESIAN_POINT('',(3.6875,0.0,0.0));
#604=DIRECTION('',(0.0,0.0,1.0));
#605=DIRECTION('',(1.0,0.0,-0.0));
#606=DIRECTION('',(-0.0,0.0,-1.0));
#607=CARTESIAN_POINT('',(-1.8125,0.0,0.0));
#608=DIRECTION('',(0.0,0.0,1.0));
#609=DIRECTION('',(1.0,0.0,-0.0));
#610=CARTESIAN_POINT('',(3.6875,0.0,0.0));
#611=DIRECTION('',(0.0,0.0,1.0));
#612=DIRECTION('',(1.0,0.0,-0.0));
#613=CARTESIAN_POINT('',(0.0625,2.28983498828939E-16,0.0));
#614=DIRECTION('',(0.0,0.0,1.0));
#615=DIRECTION('',(1.0,0.0,-0.0));
#616=DIRECTION('',(5.46571335200078E-16,-1.0,0.0));
#617=CARTESIAN_POINT('',(3.6875,0.0,0.0));
#618=DIRECTION('',(0.0,0.0,1.0));
#619=DIRECTION('',(1.0,0.0,-0.0));
#620=CARTESIAN_POINT('',(3.6875,0.0,0.0));
#621=DIRECTION('',(0.0,0.0,1.0));
#622=DIRECTION('',(1.0,0.0,-0.0));
#623=DIRECTION('',(0.0,0.0,1.0));
ENDSEC;
END-ISO-10303-21;
