ISO-10303-21;
HEADER;
FILE_DESCRIPTION(('TurboCAD Mac Pro'),'Build 980');
FILE_NAME('P2325.stp','  ',(''),(''),'ACIS Interop','IMSI','TurboCAD Mac Pro BY IMSI, INCORPORATED');
FILE_SCHEMA(('automotive_design'));
ENDSEC;
DATA;
#1=MECHANICAL_DESIGN_GEOMETRIC_PRESENTATION_REPRESENTATION(' ',(#14,#15,#16,#17,#18,#19,#20,#21,#22,#23,#24,#25,#26,#27),#10);
#2=PRODUCT_DEFINITION_CONTEXT('',#28,'design');
#3=APPLICATION_PROTOCOL_DEFINITION('INTERNATIONAL STANDARD','automotive_design',1994,#28);
#4=PRODUCT_CATEGORY_RELATIONSHIP('NONE','NONE',#29,#30);
#5=SHAPE_DEFINITION_REPRESENTATION(#31,#32);
#6=PRODUCT_DEFINITION_CONTEXT('',#33,'design');
#7=APPLICATION_PROTOCOL_DEFINITION('INTERNATIONAL STANDARD','automotive_design',1994,#33);
#8=PRODUCT_CATEGORY_RELATIONSHIP('NONE','NONE',#34,#35);
#9=SHAPE_DEFINITION_REPRESENTATION(#36,#37);
#10= (GEOMETRIC_REPRESENTATION_CONTEXT(3)GLOBAL_UNCERTAINTY_ASSIGNED_CONTEXT((#40))GLOBAL_UNIT_ASSIGNED_CONTEXT((#42,#43,#44))REPRESENTATION_CONTEXT('NONE','WORKSPACE'));
#14=STYLED_ITEM('',(#46),#47);
#15=STYLED_ITEM('',(#48),#49);
#16=STYLED_ITEM('',(#50),#51);
#17=STYLED_ITEM('',(#52),#53);
#18=STYLED_ITEM('',(#54),#55);
#19=STYLED_ITEM('',(#56),#57);
#20=STYLED_ITEM('',(#58),#59);
#21=STYLED_ITEM('',(#60),#61);
#22=STYLED_ITEM('',(#62),#63);
#23=STYLED_ITEM('',(#64),#65);
#24=STYLED_ITEM('',(#66),#67);
#25=STYLED_ITEM('',(#68),#69);
#26=STYLED_ITEM('',(#70),#71);
#27=STYLED_ITEM('',(#72),#73);
#28=APPLICATION_CONTEXT(' ');
#29=PRODUCT_CATEGORY('part','NONE');
#30=PRODUCT_RELATED_PRODUCT_CATEGORY('detail',' ',(#74));
#31=PRODUCT_DEFINITION_SHAPE('NONE','NONE',#75);
#32=ADVANCED_BREP_SHAPE_REPRESENTATION('1',(#63,#76),#10);
#33=APPLICATION_CONTEXT(' ');
#34=PRODUCT_CATEGORY('part','NONE');
#35=PRODUCT_RELATED_PRODUCT_CATEGORY('detail',' ',(#77));
#36=PRODUCT_DEFINITION_SHAPE('NONE','NONE',#78);
#37=GEOMETRICALLY_BOUNDED_SURFACE_SHAPE_REPRESENTATION('2',(#79,#80),#10);
#40=UNCERTAINTY_MEASURE_WITH_UNIT(LENGTH_MEASURE(1.0E-06),#42,'','');
#42= (CONVERSION_BASED_UNIT('INCH',#83)LENGTH_UNIT()NAMED_UNIT(#86));
#43= (NAMED_UNIT(#88)PLANE_ANGLE_UNIT()SI_UNIT($,.RADIAN.));
#44= (NAMED_UNIT(#88)SOLID_ANGLE_UNIT()SI_UNIT($,.STERADIAN.));
#46=PRESENTATION_STYLE_ASSIGNMENT((#94));
#47=ADVANCED_FACE('',(#95),#96,.T.);
#48=PRESENTATION_STYLE_ASSIGNMENT((#97));
#49=ADVANCED_FACE('',(#98),#99,.T.);
#50=PRESENTATION_STYLE_ASSIGNMENT((#100));
#51=ADVANCED_FACE('',(#101),#102,.T.);
#52=PRESENTATION_STYLE_ASSIGNMENT((#103));
#53=ADVANCED_FACE('',(#104),#105,.F.);
#54=PRESENTATION_STYLE_ASSIGNMENT((#106));
#55=ADVANCED_FACE('',(#107),#108,.T.);
#56=PRESENTATION_STYLE_ASSIGNMENT((#109));
#57=ADVANCED_FACE('',(#110),#111,.F.);
#58=PRESENTATION_STYLE_ASSIGNMENT((#112));
#59=ADVANCED_FACE('',(#113,#114,#115),#116,.F.);
#60=PRESENTATION_STYLE_ASSIGNMENT((#117));
#61=TRIMMED_CURVE('',#118,(PARAMETER_VALUE(0.0)),(PARAMETER_VALUE(6.28318530717959)),.T.,.UNSPECIFIED.);
#62=PRESENTATION_STYLE_ASSIGNMENT((#119));
#63=MANIFOLD_SOLID_BREP('1',#120);
#64=PRESENTATION_STYLE_ASSIGNMENT((#121));
#65=ADVANCED_FACE('',(#122),#123,.F.);
#66=PRESENTATION_STYLE_ASSIGNMENT((#124));
#67=ADVANCED_FACE('',(#125),#126,.F.);
#68=PRESENTATION_STYLE_ASSIGNMENT((#127));
#69=ADVANCED_FACE('',(#128),#129,.T.);
#70=PRESENTATION_STYLE_ASSIGNMENT((#130));
#71=ADVANCED_FACE('',(#131,#132,#133),#134,.T.);
#72=PRESENTATION_STYLE_ASSIGNMENT((#135));
#73=TRIMMED_CURVE('',#136,(PARAMETER_VALUE(0.0)),(PARAMETER_VALUE(6.28318530717959)),.T.,.UNSPECIFIED.);
#74=PRODUCT('1','1','PART-1-DESC',(#137));
#75=PRODUCT_DEFINITION('NONE','NONE',#138,#2);
#76=AXIS2_PLACEMENT_3D('',#139,#140,#141);
#77=PRODUCT('2','2','PART-2-DESC',(#142));
#78=PRODUCT_DEFINITION('NONE','NONE',#143,#6);
#79=GEOMETRIC_SET('2',(#144,#145));
#80=AXIS2_PLACEMENT_3D('',#146,#147,#148);
#83=LENGTH_MEASURE_WITH_UNIT(LENGTH_MEASURE(25.4),#149);
#86=DIMENSIONAL_EXPONENTS(1.0,0.0,0.0,0.0,0.0,0.0,0.0);
#88=DIMENSIONAL_EXPONENTS(0.0,0.0,0.0,0.0,0.0,0.0,0.0);
#94=SURFACE_STYLE_USAGE(.BOTH.,#150);
#95=FACE_OUTER_BOUND('',#151,.T.);
#96=PLANE('',#152);
#97=SURFACE_STYLE_USAGE(.BOTH.,#153);
#98=FACE_OUTER_BOUND('',#154,.T.);
#99=CYLINDRICAL_SURFACE('',#155,0.8125);
#100=SURFACE_STYLE_USAGE(.BOTH.,#156);
#101=FACE_OUTER_BOUND('',#157,.T.);
#102=CYLINDRICAL_SURFACE('',#158,0.8125);
#103=SURFACE_STYLE_USAGE(.BOTH.,#159);
#104=FACE_OUTER_BOUND('',#160,.T.);
#105=CYLINDRICAL_SURFACE('',#161,0.28125);
#106=SURFACE_STYLE_USAGE(.BOTH.,#162);
#107=FACE_OUTER_BOUND('',#163,.T.);
#108=PLANE('',#164);
#109=SURFACE_STYLE_USAGE(.BOTH.,#165);
#110=FACE_OUTER_BOUND('',#166,.T.);
#111=CYLINDRICAL_SURFACE('',#167,0.28125);
#112=SURFACE_STYLE_USAGE(.BOTH.,#168);
#113=FACE_BOUND('',#169,.T.);
#114=FACE_BOUND('',#170,.T.);
#115=FACE_OUTER_BOUND('',#171,.T.);
#116=PLANE('',#172);
#117=CURVE_STYLE('',#173,POSITIVE_LENGTH_MEASURE(1.0E-06),#174);
#118=CIRCLE('',#175,0.28125);
#119=SURFACE_STYLE_USAGE(.BOTH.,#176);
#120=CLOSED_SHELL('',(#67,#53,#51,#55,#49,#69,#47,#65,#57,#71,#59));
#121=SURFACE_STYLE_USAGE(.BOTH.,#177);
#122=FACE_OUTER_BOUND('',#178,.T.);
#123=CYLINDRICAL_SURFACE('',#179,0.28125);
#124=SURFACE_STYLE_USAGE(.BOTH.,#180);
#125=FACE_OUTER_BOUND('',#181,.T.);
#126=CYLINDRICAL_SURFACE('',#182,0.28125);
#127=SURFACE_STYLE_USAGE(.BOTH.,#183);
#128=FACE_OUTER_BOUND('',#184,.T.);
#129=PLANE('',#185);
#130=SURFACE_STYLE_USAGE(.BOTH.,#186);
#131=FACE_BOUND('',#187,.T.);
#132=FACE_BOUND('',#188,.T.);
#133=FACE_OUTER_BOUND('',#189,.T.);
#134=PLANE('',#190);
#135=CURVE_STYLE('',#191,POSITIVE_LENGTH_MEASURE(1.0E-06),#192);
#136=CIRCLE('',#193,0.28125);
#137=PRODUCT_CONTEXT('',#28,'mechanical');
#138=PRODUCT_DEFINITION_FORMATION_WITH_SPECIFIED_SOURCE(' ','NONE',#74,.NOT_KNOWN.);
#139=CARTESIAN_POINT('',(0.0,0.0,0.0));
#140=DIRECTION('',(0.0,0.0,1.0));
#141=DIRECTION('',(1.0,0.0,0.0));
#142=PRODUCT_CONTEXT('',#33,'mechanical');
#143=PRODUCT_DEFINITION_FORMATION_WITH_SPECIFIED_SOURCE(' ','NONE',#77,.NOT_KNOWN.);
#144=COMPOSITE_CURVE('',(#194),.U.);
#145=COMPOSITE_CURVE('',(#195),.U.);
#146=CARTESIAN_POINT('',(0.0,0.0,0.0));
#147=DIRECTION('',(0.0,0.0,1.0));
#148=DIRECTION('',(1.0,0.0,0.0));
#149= (NAMED_UNIT(#86)LENGTH_UNIT()SI_UNIT(.MILLI.,.METRE.));
#150=SURFACE_SIDE_STYLE('',(#197));
#151=EDGE_LOOP('',(#198,#199,#200,#201));
#152=AXIS2_PLACEMENT_3D('',#202,#203,#204);
#153=SURFACE_SIDE_STYLE('',(#205));
#154=EDGE_LOOP('',(#206,#207,#208,#209));
#155=AXIS2_PLACEMENT_3D('',#210,#211,#212);
#156=SURFACE_SIDE_STYLE('',(#213));
#157=EDGE_LOOP('',(#214,#215,#216,#217));
#158=AXIS2_PLACEMENT_3D('',#218,#219,#220);
#159=SURFACE_SIDE_STYLE('',(#221));
#160=EDGE_LOOP('',(#222,#223,#224,#225));
#161=AXIS2_PLACEMENT_3D('',#226,#227,#228);
#162=SURFACE_SIDE_STYLE('',(#229));
#163=EDGE_LOOP('',(#230,#231,#232,#233));
#164=AXIS2_PLACEMENT_3D('',#234,#235,#236);
#165=SURFACE_SIDE_STYLE('',(#237));
#166=EDGE_LOOP('',(#238,#239,#240,#241));
#167=AXIS2_PLACEMENT_3D('',#242,#243,#244);
#168=SURFACE_SIDE_STYLE('',(#245));
#169=EDGE_LOOP('',(#246,#247));
#170=EDGE_LOOP('',(#248,#249));
#171=EDGE_LOOP('',(#250,#251,#252,#253,#254));
#172=AXIS2_PLACEMENT_3D('',#255,#256,#257);
#173=DRAUGHTING_PRE_DEFINED_CURVE_FONT('continuous');
#174=COLOUR_RGB('',1.0,1.0,1.0);
#175=AXIS2_PLACEMENT_3D('',#258,#259,#260);
#176=SURFACE_SIDE_STYLE('',(#261));
#177=SURFACE_SIDE_STYLE('',(#262));
#178=EDGE_LOOP('',(#263,#264,#265,#266));
#179=AXIS2_PLACEMENT_3D('',#267,#268,#269);
#180=SURFACE_SIDE_STYLE('',(#270));
#181=EDGE_LOOP('',(#271,#272,#273,#274));
#182=AXIS2_PLACEMENT_3D('',#275,#276,#277);
#183=SURFACE_SIDE_STYLE('',(#278));
#184=EDGE_LOOP('',(#279,#280,#281,#282));
#185=AXIS2_PLACEMENT_3D('',#283,#284,#285);
#186=SURFACE_SIDE_STYLE('',(#286));
#187=EDGE_LOOP('',(#287,#288));
#188=EDGE_LOOP('',(#289,#290));
#189=EDGE_LOOP('',(#291,#292,#293,#294,#295));
#190=AXIS2_PLACEMENT_3D('',#296,#297,#298);
#191=DRAUGHTING_PRE_DEFINED_CURVE_FONT('continuous');
#192=COLOUR_RGB('',1.0,1.0,1.0);
#193=AXIS2_PLACEMENT_3D('',#299,#300,#301);
#194=COMPOSITE_CURVE_SEGMENT('',.CONTINUOUS.,.T.,#61);
#195=COMPOSITE_CURVE_SEGMENT('',.CONTINUOUS.,.T.,#73);
#197=SURFACE_STYLE_FILL_AREA(#302);
#198=ORIENTED_EDGE('',*,*,#303,.T.);
#199=ORIENTED_EDGE('',*,*,#304,.F.);
#200=ORIENTED_EDGE('',*,*,#305,.F.);
#201=ORIENTED_EDGE('',*,*,#306,.T.);
#202=CARTESIAN_POINT('',(2.625,1.77635683940025E-15,0.0));
#203=DIRECTION('',(1.0,-5.46571335200078E-16,0.0));
#204=DIRECTION('',(5.46571335200078E-16,1.0,-0.0));
#205=SURFACE_STYLE_FILL_AREA(#307);
#206=ORIENTED_EDGE('',*,*,#308,.T.);
#207=ORIENTED_EDGE('',*,*,#309,.F.);
#208=ORIENTED_EDGE('',*,*,#310,.T.);
#209=ORIENTED_EDGE('',*,*,#311,.T.);
#210=CARTESIAN_POINT('',(-1.8125,0.0,0.0));
#211=DIRECTION('',(-0.0,-0.0,-1.0));
#212=DIRECTION('',(1.0,0.0,0.0));
#213=SURFACE_STYLE_FILL_AREA(#312);
#214=ORIENTED_EDGE('',*,*,#308,.F.);
#215=ORIENTED_EDGE('',*,*,#313,.T.);
#216=ORIENTED_EDGE('',*,*,#314,.F.);
#217=ORIENTED_EDGE('',*,*,#315,.F.);
#218=CARTESIAN_POINT('',(-1.8125,0.0,0.0));
#219=DIRECTION('',(-0.0,-0.0,-1.0));
#220=DIRECTION('',(1.0,0.0,0.0));
#221=SURFACE_STYLE_FILL_AREA(#316);
#222=ORIENTED_EDGE('',*,*,#317,.F.);
#223=ORIENTED_EDGE('',*,*,#318,.F.);
#224=ORIENTED_EDGE('',*,*,#319,.F.);
#225=ORIENTED_EDGE('',*,*,#320,.T.);
#226=CARTESIAN_POINT('',(-1.8125,0.0,0.0));
#227=DIRECTION('',(-0.0,-0.0,-1.0));
#228=DIRECTION('',(1.0,0.0,0.0));
#229=SURFACE_STYLE_FILL_AREA(#321);
#230=ORIENTED_EDGE('',*,*,#322,.T.);
#231=ORIENTED_EDGE('',*,*,#310,.F.);
#232=ORIENTED_EDGE('',*,*,#323,.F.);
#233=ORIENTED_EDGE('',*,*,#304,.T.);
#234=CARTESIAN_POINT('',(0.40625,-0.812499999999998,0.0));
#235=DIRECTION('',(8.00611533250817E-16,-1.0,0.0));
#236=DIRECTION('',(1.0,8.00611533250817E-16,-0.0));
#237=SURFACE_STYLE_FILL_AREA(#324);
#238=ORIENTED_EDGE('',*,*,#325,.T.);
#239=ORIENTED_EDGE('',*,*,#326,.T.);
#240=ORIENTED_EDGE('',*,*,#327,.T.);
#241=ORIENTED_EDGE('',*,*,#328,.F.);
#242=CARTESIAN_POINT('',(1.8125,0.0,0.0));
#243=DIRECTION('',(-0.0,-0.0,-1.0));
#244=DIRECTION('',(1.0,0.0,0.0));
#245=SURFACE_STYLE_FILL_AREA(#329);
#246=ORIENTED_EDGE('',*,*,#328,.T.);
#247=ORIENTED_EDGE('',*,*,#330,.T.);
#248=ORIENTED_EDGE('',*,*,#331,.T.);
#249=ORIENTED_EDGE('',*,*,#318,.T.);
#250=ORIENTED_EDGE('',*,*,#305,.T.);
#251=ORIENTED_EDGE('',*,*,#323,.T.);
#252=ORIENTED_EDGE('',*,*,#309,.T.);
#253=ORIENTED_EDGE('',*,*,#315,.T.);
#254=ORIENTED_EDGE('',*,*,#332,.T.);
#255=CARTESIAN_POINT('',(0.157380187022805,9.43689570931383E-16,0.0));
#256=DIRECTION('',(0.0,0.0,1.0));
#257=DIRECTION('',(1.0,0.0,0.0));
#258=CARTESIAN_POINT('',(-1.8125,0.0,0.0));
#259=DIRECTION('',(0.0,0.0,1.0));
#260=DIRECTION('',(1.0,-2.44929359829471E-16,0.0));
#261=SURFACE_STYLE_FILL_AREA(#333);
#262=SURFACE_STYLE_FILL_AREA(#334);
#263=ORIENTED_EDGE('',*,*,#317,.T.);
#264=ORIENTED_EDGE('',*,*,#335,.T.);
#265=ORIENTED_EDGE('',*,*,#319,.T.);
#266=ORIENTED_EDGE('',*,*,#331,.F.);
#267=CARTESIAN_POINT('',(-1.8125,0.0,0.0));
#268=DIRECTION('',(-0.0,-0.0,-1.0));
#269=DIRECTION('',(1.0,0.0,0.0));
#270=SURFACE_STYLE_FILL_AREA(#336);
#271=ORIENTED_EDGE('',*,*,#325,.F.);
#272=ORIENTED_EDGE('',*,*,#330,.F.);
#273=ORIENTED_EDGE('',*,*,#327,.F.);
#274=ORIENTED_EDGE('',*,*,#337,.T.);
#275=CARTESIAN_POINT('',(1.8125,0.0,0.0));
#276=DIRECTION('',(-0.0,-0.0,-1.0));
#277=DIRECTION('',(1.0,0.0,0.0));
#278=SURFACE_STYLE_FILL_AREA(#338);
#279=ORIENTED_EDGE('',*,*,#339,.T.);
#280=ORIENTED_EDGE('',*,*,#306,.F.);
#281=ORIENTED_EDGE('',*,*,#332,.F.);
#282=ORIENTED_EDGE('',*,*,#314,.T.);
#283=CARTESIAN_POINT('',(0.40625,0.8125,0.0));
#284=DIRECTION('',(0.0,1.0,0.0));
#285=DIRECTION('',(-1.0,0.0,0.0));
#286=SURFACE_STYLE_FILL_AREA(#340);
#287=ORIENTED_EDGE('',*,*,#326,.F.);
#288=ORIENTED_EDGE('',*,*,#337,.F.);
#289=ORIENTED_EDGE('',*,*,#335,.F.);
#290=ORIENTED_EDGE('',*,*,#320,.F.);
#291=ORIENTED_EDGE('',*,*,#322,.F.);
#292=ORIENTED_EDGE('',*,*,#303,.F.);
#293=ORIENTED_EDGE('',*,*,#339,.F.);
#294=ORIENTED_EDGE('',*,*,#313,.F.);
#295=ORIENTED_EDGE('',*,*,#311,.F.);
#296=CARTESIAN_POINT('',(0.157380187022805,9.43689570931383E-16,0.25));
#297=DIRECTION('',(0.0,0.0,1.0));
#298=DIRECTION('',(1.0,0.0,0.0));
#299=CARTESIAN_POINT('',(1.8125,0.0,0.0));
#300=DIRECTION('',(0.0,0.0,1.0));
#301=DIRECTION('',(1.0,-2.44929359829471E-16,0.0));
#302=FILL_AREA_STYLE('',(#341));
#303=EDGE_CURVE('',#342,#343,#344,.T.);
#304=EDGE_CURVE('',#345,#343,#346,.T.);
#305=EDGE_CURVE('',#347,#345,#348,.T.);
#306=EDGE_CURVE('',#347,#342,#349,.T.);
#307=FILL_AREA_STYLE('',(#350));
#308=EDGE_CURVE('',#351,#352,#353,.T.);
#309=EDGE_CURVE('',#354,#352,#355,.T.);
#310=EDGE_CURVE('',#354,#356,#357,.T.);
#311=EDGE_CURVE('',#356,#351,#358,.T.);
#312=FILL_AREA_STYLE('',(#359));
#313=EDGE_CURVE('',#351,#360,#361,.T.);
#314=EDGE_CURVE('',#362,#360,#363,.T.);
#315=EDGE_CURVE('',#352,#362,#364,.T.);
#316=FILL_AREA_STYLE('',(#365));
#317=EDGE_CURVE('',#366,#367,#368,.T.);
#318=EDGE_CURVE('',#369,#366,#370,.T.);
#319=EDGE_CURVE('',#371,#369,#372,.T.);
#320=EDGE_CURVE('',#371,#367,#373,.T.);
#321=FILL_AREA_STYLE('',(#374));
#322=EDGE_CURVE('',#343,#356,#375,.T.);
#323=EDGE_CURVE('',#345,#354,#376,.T.);
#324=FILL_AREA_STYLE('',(#377));
#325=EDGE_CURVE('',#378,#379,#380,.T.);
#326=EDGE_CURVE('',#379,#381,#382,.T.);
#327=EDGE_CURVE('',#381,#383,#384,.T.);
#328=EDGE_CURVE('',#378,#383,#385,.T.);
#329=FILL_AREA_STYLE('',(#386));
#330=EDGE_CURVE('',#383,#378,#387,.T.);
#331=EDGE_CURVE('',#366,#369,#388,.T.);
#332=EDGE_CURVE('',#362,#347,#389,.T.);
#333=FILL_AREA_STYLE('',(#390));
#334=FILL_AREA_STYLE('',(#391));
#335=EDGE_CURVE('',#367,#371,#392,.T.);
#336=FILL_AREA_STYLE('',(#393));
#337=EDGE_CURVE('',#381,#379,#394,.T.);
#338=FILL_AREA_STYLE('',(#395));
#339=EDGE_CURVE('',#360,#342,#396,.T.);
#340=FILL_AREA_STYLE('',(#397));
#341=FILL_AREA_STYLE_COLOUR('',#398);
#342=VERTEX_POINT('',#399);
#343=VERTEX_POINT('',#400);
#344=LINE('',#401,#402);
#345=VERTEX_POINT('',#403);
#346=LINE('',#404,#405);
#347=VERTEX_POINT('',#406);
#348=LINE('',#407,#408);
#349=LINE('',#409,#410);
#350=FILL_AREA_STYLE_COLOUR('',#411);
#351=VERTEX_POINT('',#412);
#352=VERTEX_POINT('',#413);
#353=LINE('',#414,#415);
#354=VERTEX_POINT('',#416);
#355=CIRCLE('',#417,0.8125);
#356=VERTEX_POINT('',#418);
#357=LINE('',#419,#420);
#358=CIRCLE('',#421,0.8125);
#359=FILL_AREA_STYLE_COLOUR('',#422);
#360=VERTEX_POINT('',#423);
#361=CIRCLE('',#424,0.8125);
#362=VERTEX_POINT('',#425);
#363=LINE('',#426,#427);
#364=CIRCLE('',#428,0.8125);
#365=FILL_AREA_STYLE_COLOUR('',#429);
#366=VERTEX_POINT('',#430);
#367=VERTEX_POINT('',#431);
#368=LINE('',#432,#433);
#369=VERTEX_POINT('',#434);
#370=CIRCLE('',#435,0.28125);
#371=VERTEX_POINT('',#436);
#372=LINE('',#437,#438);
#373=CIRCLE('',#439,0.28125);
#374=FILL_AREA_STYLE_COLOUR('',#440);
#375=LINE('',#441,#442);
#376=LINE('',#443,#444);
#377=FILL_AREA_STYLE_COLOUR('',#445);
#378=VERTEX_POINT('',#446);
#379=VERTEX_POINT('',#447);
#380=LINE('',#448,#449);
#381=VERTEX_POINT('',#450);
#382=CIRCLE('',#451,0.28125);
#383=VERTEX_POINT('',#452);
#384=LINE('',#453,#454);
#385=CIRCLE('',#455,0.28125);
#386=FILL_AREA_STYLE_COLOUR('',#456);
#387=CIRCLE('',#457,0.28125);
#388=CIRCLE('',#458,0.28125);
#389=LINE('',#459,#460);
#390=FILL_AREA_STYLE_COLOUR('',#461);
#391=FILL_AREA_STYLE_COLOUR('',#462);
#392=CIRCLE('',#463,0.28125);
#393=FILL_AREA_STYLE_COLOUR('',#464);
#394=CIRCLE('',#465,0.28125);
#395=FILL_AREA_STYLE_COLOUR('',#466);
#396=LINE('',#467,#468);
#397=FILL_AREA_STYLE_COLOUR('',#469);
#398=COLOUR_RGB('',0.156862750649452,0.549019634723663,0.941176474094391);
#399=CARTESIAN_POINT('',(2.625,0.8125,0.25));
#400=CARTESIAN_POINT('',(2.625,-0.812499999999996,0.25));
#401=CARTESIAN_POINT('',(2.625,0.8125,0.25));
#402=VECTOR('',#470,1.0);
#403=CARTESIAN_POINT('',(2.625,-0.812499999999996,0.0));
#404=CARTESIAN_POINT('',(2.625,-0.812499999999996,0.0));
#405=VECTOR('',#471,1.0);
#406=CARTESIAN_POINT('',(2.625,0.8125,0.0));
#407=CARTESIAN_POINT('',(2.625,0.8125,0.0));
#408=VECTOR('',#472,1.0);
#409=CARTESIAN_POINT('',(2.625,0.8125,0.0));
#410=VECTOR('',#473,1.0);
#411=COLOUR_RGB('',0.156862750649452,0.549019634723663,0.941176474094391);
#412=CARTESIAN_POINT('',(-2.625,9.95025524307224E-17,0.25));
#413=CARTESIAN_POINT('',(-2.625,9.95025524307224E-17,0.0));
#414=CARTESIAN_POINT('',(-2.625,9.95025524307224E-17,0.0));
#415=VECTOR('',#474,1.0);
#416=CARTESIAN_POINT('',(-1.8125,-0.8125,0.0));
#417=AXIS2_PLACEMENT_3D('',#475,#476,#477);
#418=CARTESIAN_POINT('',(-1.8125,-0.8125,0.25));
#419=CARTESIAN_POINT('',(-1.8125,-0.8125,0.0));
#420=VECTOR('',#478,1.0);
#421=AXIS2_PLACEMENT_3D('',#479,#480,#481);
#422=COLOUR_RGB('',0.156862750649452,0.549019634723663,0.941176474094391);
#423=CARTESIAN_POINT('',(-1.8125,0.8125,0.25));
#424=AXIS2_PLACEMENT_3D('',#482,#483,#484);
#425=CARTESIAN_POINT('',(-1.8125,0.8125,0.0));
#426=CARTESIAN_POINT('',(-1.8125,0.8125,0.0));
#427=VECTOR('',#485,1.0);
#428=AXIS2_PLACEMENT_3D('',#486,#487,#488);
#429=COLOUR_RGB('',0.156862750649452,0.549019634723663,0.941176474094391);
#430=CARTESIAN_POINT('',(-1.53125,0.0,0.0));
#431=CARTESIAN_POINT('',(-1.53125,0.0,0.25));
#432=CARTESIAN_POINT('',(-1.53125,-3.44431912260193E-17,0.0));
#433=VECTOR('',#489,1.0);
#434=CARTESIAN_POINT('',(-2.09375,3.44431912260193E-17,0.0));
#435=AXIS2_PLACEMENT_3D('',#490,#491,#492);
#436=CARTESIAN_POINT('',(-2.09375,3.44431912260193E-17,0.25));
#437=CARTESIAN_POINT('',(-2.09375,3.44431912260193E-17,0.0));
#438=VECTOR('',#493,1.0);
#439=AXIS2_PLACEMENT_3D('',#494,#495,#496);
#440=COLOUR_RGB('',0.156862750649452,0.549019634723663,0.941176474094391);
#441=CARTESIAN_POINT('',(2.625,-0.812499999999996,0.25));
#442=VECTOR('',#497,1.0);
#443=CARTESIAN_POINT('',(2.625,-0.812499999999996,0.0));
#444=VECTOR('',#498,1.0);
#445=COLOUR_RGB('',0.156862750649452,0.549019634723663,0.941176474094391);
#446=CARTESIAN_POINT('',(2.09375,0.0,0.0));
#447=CARTESIAN_POINT('',(2.09375,0.0,0.25));
#448=CARTESIAN_POINT('',(2.09375,-3.44431912260193E-17,0.0));
#449=VECTOR('',#499,1.0);
#450=CARTESIAN_POINT('',(1.53125,3.44431912260193E-17,0.25));
#451=AXIS2_PLACEMENT_3D('',#500,#501,#502);
#452=CARTESIAN_POINT('',(1.53125,3.44431912260193E-17,0.0));
#453=CARTESIAN_POINT('',(1.53125,3.44431912260193E-17,0.0));
#454=VECTOR('',#503,1.0);
#455=AXIS2_PLACEMENT_3D('',#504,#505,#506);
#456=COLOUR_RGB('',0.156862750649452,0.549019634723663,0.941176474094391);
#457=AXIS2_PLACEMENT_3D('',#507,#508,#509);
#458=AXIS2_PLACEMENT_3D('',#510,#511,#512);
#459=CARTESIAN_POINT('',(-1.8125,0.8125,0.0));
#460=VECTOR('',#513,1.0);
#461=COLOUR_RGB('',0.156862750649452,0.549019634723663,0.941176474094391);
#462=COLOUR_RGB('',0.156862750649452,0.549019634723663,0.941176474094391);
#463=AXIS2_PLACEMENT_3D('',#514,#515,#516);
#464=COLOUR_RGB('',0.156862750649452,0.549019634723663,0.941176474094391);
#465=AXIS2_PLACEMENT_3D('',#517,#518,#519);
#466=COLOUR_RGB('',0.156862750649452,0.549019634723663,0.941176474094391);
#467=CARTESIAN_POINT('',(-1.8125,0.8125,0.25));
#468=VECTOR('',#520,1.0);
#469=COLOUR_RGB('',0.156862750649452,0.549019634723663,0.941176474094391);
#470=DIRECTION('',(-5.46571335200078E-16,-1.0,0.0));
#471=DIRECTION('',(0.0,0.0,1.0));
#472=DIRECTION('',(-5.46571335200078E-16,-1.0,0.0));
#473=DIRECTION('',(0.0,0.0,1.0));
#474=DIRECTION('',(-0.0,-0.0,-1.0));
#475=CARTESIAN_POINT('',(-1.8125,0.0,0.0));
#476=DIRECTION('',(0.0,0.0,-1.0));
#477=DIRECTION('',(1.0,0.0,0.0));
#478=DIRECTION('',(0.0,0.0,1.0));
#479=CARTESIAN_POINT('',(-1.8125,0.0,0.25));
#480=DIRECTION('',(0.0,0.0,-1.0));
#481=DIRECTION('',(1.0,0.0,0.0));
#482=CARTESIAN_POINT('',(-1.8125,0.0,0.25));
#483=DIRECTION('',(0.0,0.0,-1.0));
#484=DIRECTION('',(1.0,0.0,0.0));
#485=DIRECTION('',(0.0,0.0,1.0));
#486=CARTESIAN_POINT('',(-1.8125,0.0,0.0));
#487=DIRECTION('',(0.0,0.0,-1.0));
#488=DIRECTION('',(1.0,0.0,0.0));
#489=DIRECTION('',(-0.0,0.0,1.0));
#490=CARTESIAN_POINT('',(-1.8125,0.0,0.0));
#491=DIRECTION('',(0.0,0.0,1.0));
#492=DIRECTION('',(1.0,0.0,-0.0));
#493=DIRECTION('',(-0.0,0.0,-1.0));
#494=CARTESIAN_POINT('',(-1.8125,0.0,0.25));
#495=DIRECTION('',(0.0,0.0,1.0));
#496=DIRECTION('',(1.0,0.0,0.0));
#497=DIRECTION('',(-1.0,-8.00611533250817E-16,0.0));
#498=DIRECTION('',(-1.0,-8.00611533250817E-16,0.0));
#499=DIRECTION('',(-0.0,0.0,1.0));
#500=CARTESIAN_POINT('',(1.8125,0.0,0.25));
#501=DIRECTION('',(0.0,0.0,1.0));
#502=DIRECTION('',(1.0,0.0,0.0));
#503=DIRECTION('',(-0.0,0.0,-1.0));
#504=CARTESIAN_POINT('',(1.8125,0.0,0.0));
#505=DIRECTION('',(0.0,0.0,1.0));
#506=DIRECTION('',(1.0,0.0,-0.0));
#507=CARTESIAN_POINT('',(1.8125,0.0,0.0));
#508=DIRECTION('',(0.0,0.0,1.0));
#509=DIRECTION('',(1.0,0.0,-0.0));
#510=CARTESIAN_POINT('',(-1.8125,0.0,0.0));
#511=DIRECTION('',(0.0,0.0,1.0));
#512=DIRECTION('',(1.0,0.0,-0.0));
#513=DIRECTION('',(1.0,0.0,0.0));
#514=CARTESIAN_POINT('',(-1.8125,0.0,0.25));
#515=DIRECTION('',(0.0,0.0,1.0));
#516=DIRECTION('',(1.0,0.0,0.0));
#517=CARTESIAN_POINT('',(1.8125,0.0,0.25));
#518=DIRECTION('',(0.0,0.0,1.0));
#519=DIRECTION('',(1.0,0.0,0.0));
#520=DIRECTION('',(1.0,0.0,0.0));
ENDSEC;
END-ISO-10303-21;
